  0
SECTION
  2
HEADER
  9
$ACADVER
  1
AC1009
  9
$INSBASE
 10
0.0
 20
0.0
 30
0.0
  9
$EXTMIN
 10
11.02009127854207
 20
3.166076218564605
 30
0.0
  9
$EXTMAX
 10
14.20609127854207
 20
5.4911818784423083
 30
0.0
  9
$LIMMIN
 10
0.0
 20
0.0
  9
$LIMMAX
 10
12.0
 20
9.0
  9
$ORTHOMODE
 70
     1
  9
$REGENMODE
 70
     0
  9
$FILLMODE
 70
     1
  9
$QTEXTMODE
 70
     0
  9
$MIRRTEXT
 70
     0
  9
$DRAGMODE
 70
     2
  9
$LTSCALE
 40
1.0
  9
$OSMODE
 70
    55
  9
$ATTMODE
 70
     1
  9
$TEXTSIZE
 40
0.2
  9
$TRACEWID
 40
0.05
  9
$TEXTSTYLE
  7
STANDARD
  9
$CLAYER
  8
0
  9
$CELTYPE
  6
BYLAYER
  9
$CECOLOR
 62
   256
  9
$DIMSCALE
 40
1.0
  9
$DIMASZ
 40
0.125
  9
$DIMEXO
 40
0.0625
  9
$DIMDLI
 40
0.38
  9
$DIMRND
 40
0.0
  9
$DIMDLE
 40
0.0
  9
$DIMEXE
 40
0.18
  9
$DIMTP
 40
0.0
  9
$DIMTM
 40
0.0
  9
$DIMTXT
 40
0.09375
  9
$DIMCEN
 40
-0.125
  9
$DIMTSZ
 40
0.0
  9
$DIMTOL
 70
     0
  9
$DIMLIM
 70
     0
  9
$DIMTIH
 70
     0
  9
$DIMTOH
 70
     0
  9
$DIMSE1
 70
     0
  9
$DIMSE2
 70
     0
  9
$DIMTAD
 70
     0
  9
$DIMZIN
 70
     3
  9
$DIMBLK
  1

  9
$DIMASO
 70
     0
  9
$DIMSHO
 70
     1
  9
$DIMPOST
  1

  9
$DIMAPOST
  1

  9
$DIMALT
 70
     0
  9
$DIMALTD
 70
     2
  9
$DIMALTF
 40
25.399999999999999
  9
$DIMLFAC
 40
1.0
  9
$DIMTOFL
 70
     1
  9
$DIMTVP
 40
0.0
  9
$DIMTIX
 70
     0
  9
$DIMSOXD
 70
     0
  9
$DIMSAH
 70
     0
  9
$DIMBLK1
  1

  9
$DIMBLK2
  1

  9
$DIMSTYLE
  2
STANDARD
  9
$DIMCLRD
 70
     0
  9
$DIMCLRE
 70
     0
  9
$DIMCLRT
 70
     0
  9
$DIMTFAC
 40
1.0
  9
$DIMGAP
 40
0.09
  9
$LUNITS
 70
     4
  9
$LUPREC
 70
     4
  9
$SKETCHINC
 40
0.1
  9
$FILLETRAD
 40
0.025
  9
$AUNITS
 70
     0
  9
$AUPREC
 70
     4
  9
$MENU
  1
.
  9
$ELEVATION
 40
0.0
  9
$PELEVATION
 40
0.0
  9
$THICKNESS
 40
0.0
  9
$LIMCHECK
 70
     0
  9
$BLIPMODE
 70
     0
  9
$CHAMFERA
 40
0.125
  9
$CHAMFERB
 40
0.5
  9
$SKPOLY
 70
     0
  9
$TDCREATE
 40
2451086.9109346061
  9
$TDUPDATE
 40
2453913.5791238891
  9
$TDINDWG
 40
0.0624897917
  9
$TDUSRTIMER
 40
0.0624897917
  9
$USRTIMER
 70
     1
  9
$ANGBASE
 50
0.0
  9
$ANGDIR
 70
     0
  9
$PDMODE
 70
    34
  9
$PDSIZE
 40
3.0
  9
$PLINEWID
 40
0.0
  9
$COORDS
 70
     1
  9
$SPLFRAME
 70
     0
  9
$SPLINETYPE
 70
     6
  9
$SPLINESEGS
 70
     8
  9
$ATTDIA
 70
     0
  9
$ATTREQ
 70
     1
  9
$HANDLING
 70
     1
  9
$HANDSEED
  5
2E5
  9
$SURFTAB1
 70
     6
  9
$SURFTAB2
 70
     6
  9
$SURFTYPE
 70
     6
  9
$SURFU
 70
     6
  9
$SURFV
 70
     6
  9
$UCSNAME
  2

  9
$UCSORG
 10
0.0
 20
0.0
 30
0.0
  9
$UCSXDIR
 10
1.0
 20
0.0
 30
0.0
  9
$UCSYDIR
 10
0.0
 20
1.0
 30
0.0
  9
$PUCSNAME
  2

  9
$PUCSORG
 10
0.0
 20
0.0
 30
0.0
  9
$PUCSXDIR
 10
1.0
 20
0.0
 30
0.0
  9
$PUCSYDIR
 10
0.0
 20
1.0
 30
0.0
  9
$USERI1
 70
     0
  9
$USERI2
 70
     0
  9
$USERI3
 70
     0
  9
$USERI4
 70
     0
  9
$USERI5
 70
     0
  9
$USERR1
 40
0.0
  9
$USERR2
 40
0.0
  9
$USERR3
 40
0.0
  9
$USERR4
 40
0.0
  9
$USERR5
 40
0.0
  9
$WORLDVIEW
 70
     1
  9
$SHADEDGE
 70
     3
  9
$SHADEDIF
 70
    70
  9
$TILEMODE
 70
     1
  9
$MAXACTVP
 70
    48
  9
$PLIMCHECK
 70
     0
  9
$PEXTMIN
 10
10.133364582597791
 20
2.5055466625361862
 30
0.0
  9
$PEXTMAX
 10
15.400864582597791
 20
5.6869767284109427
 30
0.0
  9
$PLIMMIN
 10
-0.1579164520023376
 20
-0.2812499887361301
  9
$PLIMMAX
 10
10.84208330770177
 20
8.2187497709679782
  9
$UNITMODE
 70
     0
  9
$VISRETAIN
 70
     1
  9
$PLINEGEN
 70
     0
  9
$PSLTSCALE
 70
     1
  0
ENDSEC
  0
SECTION
  2
TABLES
  0
TABLE
  2
VPORT
 70
     2
  0
VPORT
  2
*ACTIVE
 70
     0
 10
0.0
 20
0.0
 11
1.0
 21
1.0
 12
0.8939504892647494
 22
0.3681847310028237
 13
0.0
 23
0.0
 14
0.5
 24
0.5
 15
0.5
 25
0.5
 16
0.0
 26
0.0
 36
1.0
 17
12.76711458759779
 27
4.078256940280208
 37
0.0
 40
3.2662045419808439
 41
2.3227848101265818
 42
50.0
 43
0.0
 44
0.0
 50
0.0
 51
0.0
 71
     0
 72
   100
 73
     1
 74
     1
 75
     0
 76
     0
 77
     0
 78
     0
  0
ENDTAB
  0
TABLE
  2
LTYPE
 70
    18
  0
LTYPE
  2
CONTINUOUS
 70
     0
  3
Solid line
 72
    65
 73
     0
 40
0.0
  0
LTYPE
  2
HIDDEN
 70
     0
  3
__ __ __ __ __ __ __ __ __ __ __ __ __ __ __ __
 72
    65
 73
     2
 40
0.375
 49
0.25
 49
-0.125
  0
LTYPE
  2
PHANTOM2
 70
     0
  3
Phantom (.5x) ___ _ _ ___ _ _ ___ _ _ ___ _ _
 72
    65
 73
     6
 40
1.25
 49
0.625
 49
-0.125
 49
0.125
 49
-0.125
 49
0.125
 49
-0.125
  0
LTYPE
  2
CENTER
 70
     0
  3
Center ____ _ ____ _ ____ _ ____ _ ____ _ ____
 72
    65
 73
     4
 40
2.0
 49
1.25
 49
-0.25
 49
0.25
 49
-0.25
  0
LTYPE
  2
ASULTYPE
 70
     0
  3
Solid line
 72
    65
 73
     2
 40
3.0
 49
2.5
 49
0.5
  0
LTYPE
  2
ASVLTYPE
 70
     0
  3
__ __ __ __ __ __ __ __ __ __ __ __ __ __ __ __ __ __ __ __ __
 72
    65
 73
     2
 40
0.75
 49
0.5
 49
-0.25
  0
LTYPE
  2
AM_ISO02W050
 70
     0
  3
__ __ __ __ __ __ __ __ __ __ __ __ __ __ __
 72
    65
 73
     2
 40
7.5
 49
6.0
 49
-1.5
  0
LTYPE
  2
AM_ISO08W050
 70
     0
  3
____ . ____ . ____ . ____ . ____ . ____ . ____
 72
    65
 73
     4
 40
18.0
 49
12.0
 49
-1.5
 49
3.0
 49
-1.5
  0
LTYPE
  2
AM_ISO09W050
 70
     0
  3
_____ . . _____ . . _____ . . ____ .. ____
 72
    65
 73
     6
 40
22.5
 49
12.0
 49
-1.5
 49
3.0
 49
-1.5
 49
3.0
 49
-1.5
  0
LTYPE
  2
AMCONSTR
 70
     0
  3
_______________________
 72
    65
 73
     2
 40
9999.0
 49
9999.0
 49
0.0
  0
LTYPE
  2
AM_ISO08W050X2
 70
     0
  3
__ . __ . __ . __ . __ . __
 72
    65
 73
     4
 40
9.0
 49
6.0
 49
-0.75
 49
1.5
 49
-0.75
  0
LTYPE
  2
AM_ISO02W050X2
 70
     0
  3
 _ _ _ _ _ _ _ _ _ _ _ _
 72
    65
 73
     2
 40
3.75
 49
3.0
 49
-0.75
  0
LTYPE
  2
AMZIGZAG
 70
     0
  3
/\/-/\/-/\/-/\/-/\/-/\/
 72
    65
 73
     2
 40
11.0001
 49
0.0001
 49
-11.0
  0
LTYPE
  2
CENTER2
 70
     0
  3
Center (.5x) ___ _ ___ _ ___ _ ___ _ ___ _ ___
 72
    65
 73
     4
 40
1.125
 49
0.75
 49
-0.125
 49
0.125
 49
-0.125
  0
LTYPE
  2
HIDDEN2
 70
     0
  3
Hidden (.5x) _ _ _ _ _ _ _ _ _ _ _ _ _ _ _ _ _
 72
    65
 73
     2
 40
0.1875
 49
0.125
 49
-0.0625
  0
LTYPE
  2
AMZIGZAG2
 70
     0
  3
/\/-/\/-/\/-/\/-/\/-/\/
 72
    65
 73
     2
 40
0.4401
 49
0.0001
 49
-0.4400000000000001
  0
LTYPE
  2
ACANSTGB
 70
     0
  3
__ . . __ . .
 72
    65
 73
     6
 40
0.35433070866
 49
0.15748031496
 49
-0.03937007874
 49
0.03937007874
 49
-0.03937007874
 49
0.03937007874
 49
-0.03937007874
  0
LTYPE
  2
ACANSTGL
 70
     0
  3
_ _ _ _ _
 72
    65
 73
     2
 40
0.11811023622
 49
0.07874015748
 49
-0.03937007874
  0
ENDTAB
  0
TABLE
  2
LAYER
 70
     4
  0
LAYER
  2
0
 70
     0
 62
     7
  6
CONTINUOUS
  0
LAYER
  2
AM_VIS
 70
     0
 62
     7
  6
CONTINUOUS
  0
LAYER
  2
AM_HID
 70
     0
 62
     7
  6
HIDDEN
  0
LAYER
  2
KEE10
 70
     0
 62
     7
  6
CONTINUOUS
  0
ENDTAB
  0
TABLE
  2
STYLE
 70
     5
  0
STYLE
  2
STANDARD
 70
     0
 40
0.0
 41
1.0
 50
0.0
 71
     0
 42
0.2
  3
txt
  4

  0
STYLE
  2

 70
     1
 40
0.0
 41
1.0
 50
0.0
 71
     0
 42
0.2
  3
ltypeshp.shx
  4

  0
STYLE
  2
ACANSTS
 70
     0
 40
1.0
 41
1.0
 50
0.0
 71
     0
 42
0.2
  3
romans.shx
  4

  0
STYLE
  2
ACANSGDT
 70
     0
 40
0.0
 41
1.0
 50
0.0
 71
     0
 42
0.2
  3
amgdtans.shx
  4

  0
STYLE
  2
ACANSTSB
 70
     0
 40
1.0
 41
1.0
 50
0.0
 71
     0
 42
0.2
  3
romans.shx
  4

  0
ENDTAB
  0
TABLE
  2
VIEW
 70
     0
  0
ENDTAB
  0
TABLE
  2
UCS
 70
     0
  0
ENDTAB
  0
TABLE
  2
APPID
 70
    13
  0
APPID
  2
ACAD
 70
     0
  0
APPID
  2
GENIUS_GENDIM_13
 70
     0
  0
APPID
  2
GENIUS_GENDTOL_13
 70
     0
  0
APPID
  2
GENIUS_GE3DTOL_13
 70
     0
  0
APPID
  2
MCAD_NO_VIS
 70
     0
  0
APPID
  2
ACAD_TEMP_GRAPHIC
 70
     0
  0
APPID
  2
AD_DRAW
 70
     0
  0
APPID
  2
ACATTRIBSERVICES
 70
     0
  0
APPID
  2
ASURF_PCURVE_APPNAME
 70
     0
  0
APPID
  2
AMG_3D2D_5_0
 70
     0
  0
APPID
  2
DESIGNERASSEMBLIES
 70
     0
  0
APPID
  2
ACADM_DIM_EDIT
 70
     0
  0
APPID
  2
AMDT_DM_ADJ
 70
     0
  0
ENDTAB
  0
TABLE
  2
DIMSTYLE
 70
     7
  0
DIMSTYLE
  2
STANDARD
 70
     0
  3

  4

  5

  6

  7

 40
1.0
 41
0.18
 42
0.0625
 43
0.38
 44
0.18
 45
0.0
 46
0.0
 47
0.0
 48
0.0
140
0.18
141
0.09
142
0.0
143
25.399999999999999
144
1.0
145
0.0
146
1.0
147
0.09
 71
     0
 72
     0
 73
     1
 74
     1
 75
     0
 76
     0
 77
     0
 78
     0
170
     0
171
     2
172
     0
173
     0
174
     0
175
     0
176
     0
177
     0
178
     0
  0
DIMSTYLE
  2
AM_ANSI
 70
     0
  3

  4
mm
  5

  6

  7

 40
1.0
 41
0.1
 42
0.05
 43
0.5
 44
0.1
 45
0.0
 46
0.0
 47
0.1
 48
0.1
140
0.12
141
0.0
142
0.0
143
25.399999999999999
144
1.0
145
0.0
146
0.71
147
0.06
 71
     0
 72
     0
 73
     1
 74
     1
 75
     0
 76
     0
 77
     0
 78
     7
170
     0
171
     2
172
     0
173
     0
174
     0
175
     0
176
   256
177
   256
178
     2
  0
DIMSTYLE
  2
AM_ANSI$3
 70
     0
  3

  4
mm
  5

  6

  7

 40
1.0
 41
0.1
 42
0.05
 43
0.5
 44
0.1
 45
0.0
 46
0.0
 47
0.1
 48
0.1
140
0.12
141
0.0
142
0.0
143
25.399999999999999
144
1.0
145
0.0
146
0.71
147
0.06
 71
     0
 72
     0
 73
     1
 74
     1
 75
     0
 76
     0
 77
     0
 78
     7
170
     0
171
     2
172
     0
173
     0
174
     0
175
     0
176
   256
177
   256
178
     2
  0
DIMSTYLE
  2
AM_ANSI$4
 70
     0
  3

  4
mm
  5

  6

  7

 40
1.0
 41
0.1
 42
0.05
 43
0.5
 44
0.1
 45
0.0
 46
0.0
 47
0.1
 48
0.1
140
0.12
141
0.0
142
0.0
143
25.399999999999999
144
1.0
145
0.0
146
0.71
147
0.06
 71
     0
 72
     0
 73
     1
 74
     1
 75
     0
 76
     0
 77
     0
 78
     7
170
     0
171
     2
172
     0
173
     0
174
     0
175
     0
176
   256
177
   256
178
     2
  0
DIMSTYLE
  2
AM_ANSI$7
 70
     0
  3

  4
mm
  5

  6

  7

 40
1.0
 41
0.1
 42
0.05
 43
0.5
 44
0.1
 45
0.0
 46
0.0
 47
0.1
 48
0.1
140
0.24
141
0.0
142
0.0
143
25.399999999999999
144
1.0
145
0.0
146
0.71
147
0.06
 71
     0
 72
     0
 73
     1
 74
     1
 75
     0
 76
     0
 77
     0
 78
     7
170
     0
171
     2
172
     0
173
     0
174
     0
175
     0
176
   256
177
   256
178
     2
  0
DIMSTYLE
  2
AM_ANSI$SF
 70
     0
  3

  4
mm
  5

  6

  7

 40
1.0
 41
0.1
 42
0.05
 43
0.5
 44
0.1
 45
0.0
 46
0.0
 47
0.1
 48
0.1
140
0.12
141
0.0
142
0.0
143
25.399999999999999
144
1.0
145
0.0
146
0.71
147
0.06
 71
     0
 72
     0
 73
     1
 74
     1
 75
     1
 76
     1
 77
     0
 78
     7
170
     0
171
     2
172
     0
173
     0
174
     0
175
     0
176
   256
177
   256
178
     2
  0
DIMSTYLE
  2
AM_ANSI$SH
 70
     0
  3

  4
mm
  5

  6
GENAXEH
  7

 40
1.0
 41
0.1
 42
0.05
 43
0.5
 44
0.1
 45
0.0
 46
0.0
 47
0.1
 48
0.1
140
0.12
141
0.0
142
0.0
143
25.399999999999999
144
1.0
145
0.0
146
0.71
147
0.06
 71
     0
 72
     0
 73
     1
 74
     1
 75
     1
 76
     1
 77
     0
 78
     7
170
     0
171
     2
172
     0
173
     1
174
     0
175
     0
176
   256
177
   256
178
     2
  0
ENDTAB
  0
ENDSEC
  0
SECTION
  2
BLOCKS
  0
BLOCK
  8
0
  2
$MODEL_SPACE
 70
     0
 10
0.0
 20
0.0
 30
0.0
  3
$MODEL_SPACE
  1

  0
ENDBLK
  5
A
  8
0
  0
BLOCK
 67
     1
  8
0
  2
$PAPER_SPACE
 70
     0
 10
0.0
 20
0.0
 30
0.0
  3
$PAPER_SPACE
  1

  0
ENDBLK
  5
F
 67
     1
  8
0
  0
BLOCK
  8
0
  2
*U0
 70
     1
 10
0.0
 20
0.0
 30
0.0
  3
*U0
  1

  0
ENDBLK
  5
103
  8
0
  0
BLOCK
  8
0
  2
GENAXEH
 70
     0
 10
0.0
 20
0.0
 30
0.0
  3
GENAXEH
  1

  0
LINE
  5
141
  8
0
 10
-1.0
 20
0.0
 30
0.0
 11
1.0
 21
0.0
 31
0.0
  0
ENDBLK
  5
143
  8
0
  0
BLOCK
  8
0
  2
_DOT
 70
     0
 10
0.0
 20
0.0
 30
0.0
  3
_DOT
  1

  0
POLYLINE
  5
154
  8
0
  6
BYBLOCK
 62
     0
 66
     1
 10
0.0
 20
0.0
 30
0.0
 70
     1
 40
0.5
 41
0.5
  0
VERTEX
  5
155
  8
0
  6
BYBLOCK
 62
     0
 10
-0.25
 20
0.0
 30
0.0
 42
1.0
  0
VERTEX
  5
156
  8
0
  6
BYBLOCK
 62
     0
 10
0.25
 20
0.0
 30
0.0
 42
1.0
  0
SEQEND
  5
157
  8
0
  6
BYBLOCK
 62
     0
  0
LINE
  5
158
  8
0
  6
BYBLOCK
 62
     0
 10
-0.5
 20
0.0
 30
0.0
 11
-1.0
 21
0.0
 31
0.0
  0
ENDBLK
  5
15A
  8
0
  0
BLOCK
  8
0
  2
2D
 70
     0
 10
0.0
 20
0.0
 30
0.0
  3
2D
  1

  0
INSERT
  5
15E
  8
0
  2
*U5
 10
0.0
 20
0.0
 30
0.0
  0
INSERT
  5
15F
  8
0
  2
*U6
 10
0.0
 20
0.0
 30
0.0
  0
INSERT
  5
160
  8
0
  2
*U7
 10
0.0
 20
0.0
 30
0.0
  0
ENDBLK
  5
162
  8
0
  0
BLOCK
  8
0
  2
*U4
 70
     1
 10
0.0
 20
0.0
 30
0.0
  3
*U4
  1

  0
TEXT
  5
1CA
  8
0
 10
12.455591278542069
 20
5.3278318784423071
 30
0.0
 40
0.0675
  1
1-1/2"
  0
ENDBLK
  5
1CC
  8
0
  0
BLOCK
  8
0
  2
*U5
 70
     1
 10
0.0
 20
0.0
 30
0.0
  3
*U5
  1

  0
TEXT
  5
1CE
  8
KEE10
 10
-0.167740653382606
 20
0.7944046258072062
 30
0.0
 40
0.140625
  1
KEE
  0
ENDBLK
  5
1D0
  8
0
  0
BLOCK
  8
0
  2
*U6
 70
     1
 10
0.0
 20
0.0
 30
0.0
  3
*U6
  1

  0
TEXT
  5
1D2
  8
KEE10
 10
-0.308365653382606
 20
0.4858688129746218
 30
0.0
 40
0.140625
  1
KLAMP
  0
ENDBLK
  5
1D4
  8
0
  0
BLOCK
  8
0
  2
*U7
 70
     1
 10
0.0
 20
0.0
 30
0.0
  3
*U7
  1

  0
TEXT
  5
1D6
  8
KEE10
 10
-0.202896903382606
 20
0.2018753139112972
 30
0.0
 40
0.140625
  1
10-8
  0
ENDBLK
  5
1D8
  8
0
  0
BLOCK
  8
0
  2
*U8
 70
     1
 10
0.0
 20
0.0
 30
0.0
  3
*U8
  1

  0
TEXT
  5
1DA
  8
KEE10
 10
11.73679981377315
 20
3.5447403984813231
 30
0.0
 40
0.081
  1
KEE
  0
ENDBLK
  5
1DC
  8
0
  0
BLOCK
  8
0
  2
*U9
 70
     1
 10
0.0
 20
0.0
 30
0.0
  3
*U9
  1

  0
TEXT
  5
1DE
  8
KEE10
 10
11.65579981377315
 20
3.3670237702897552
 30
0.0
 40
0.081
  1
KLAMP
  0
ENDBLK
  5
1E0
  8
0
  0
ENDSEC
  0
SECTION
  2
ENTITIES
  0
LINE
  5
25
  8
AM_VIS
 10
11.02009127854207
 20
3.2740762185646051
 30
0.0
 11
12.676091278542071
 21
3.2740762185646051
 31
0.0
  0
LINE
  5
27
  8
AM_VIS
 10
12.676091278542071
 20
4.714076218564605
 30
0.0
 11
11.02009127854207
 21
4.714076218564605
 31
0.0
  0
ARC
  5
2A
  8
AM_VIS
 10
11.83970056610592
 20
3.9910453403102601
 30
0.0
 40
0.2954374076912722
 50
271.62821010577989
 51
310.70568439048219
  0
ARC
  5
2B
  8
AM_VIS
 10
11.85648199097823
 20
3.991045340310261
 30
0.0
 40
0.2954374076912727
 50
229.29431560951781
 51
268.37178989422011
  0
ARC
  5
2C
  8
AM_VIS
 10
11.84809127854207
 20
3.9940762185646048
 30
0.0
 40
0.2925
 50
309.0723075591805
 51
50.927692440819548
  0
ARC
  5
2D
  8
AM_VIS
 10
11.83970056610592
 20
3.9971070968189499
 30
0.0
 40
0.2954374076912712
 50
49.29431560951776
 51
88.371789894220171
  0
CIRCLE
  5
2E
  8
AM_VIS
 10
11.84809127854207
 20
3.9940762185646048
 30
0.0
 40
0.225
  0
ARC
  5
2F
  8
AM_VIS
 10
11.856481990978221
 20
3.9971070968189522
 30
0.0
 40
0.2954374076912695
 50
91.628210105779715
 51
130.7056843904823
  0
ARC
  5
30
  8
AM_VIS
 10
11.84809127854207
 20
3.9940762185646048
 30
0.0
 40
0.2925
 50
129.0723075591805
 51
230.9276924408195
  0
POLYLINE
  8
AM_VIS
  5
1E1
  66
     1
 10
0.000000
 20
0.000000
 30
0.000000
  70
     8
  0
VERTEX
  8
AM_VIS
  5
1E2
 10
13.4868
 20
4.81491
 30
0.000000
  70
    32
  0
VERTEX
  8
AM_VIS
  5
1E3
 10
13.4859
 20
4.81502
 30
0.000000
  70
    32
  0
VERTEX
  8
AM_VIS
  5
1E4
 10
13.4851
 20
4.81513
 30
0.000000
  70
    32
  0
VERTEX
  8
AM_VIS
  5
1E5
 10
13.4843
 20
4.81524
 30
0.000000
  70
    32
  0
VERTEX
  8
AM_VIS
  5
1E6
 10
13.4835
 20
4.81535
 30
0.000000
  70
    32
  0
VERTEX
  8
AM_VIS
  5
1E7
 10
13.4826
 20
4.81546
 30
0.000000
  70
    32
  0
VERTEX
  8
AM_VIS
  5
1E8
 10
13.4818
 20
4.81556
 30
0.000000
  70
    32
  0
VERTEX
  8
AM_VIS
  5
1E9
 10
13.4810
 20
4.81567
 30
0.000000
  70
    32
  0
VERTEX
  8
AM_VIS
  5
1EA
 10
13.4801
 20
4.81578
 30
0.000000
  70
    32
  0
VERTEX
  8
AM_VIS
  5
1EB
 10
13.4793
 20
4.81588
 30
0.000000
  70
    32
  0
VERTEX
  8
AM_VIS
  5
1EC
 10
13.4785
 20
4.81599
 30
0.000000
  70
    32
  0
VERTEX
  8
AM_VIS
  5
1ED
 10
13.4777
 20
4.81609
 30
0.000000
  70
    32
  0
VERTEX
  8
AM_VIS
  5
1EE
 10
13.4768
 20
4.81620
 30
0.000000
  70
    32
  0
VERTEX
  8
AM_VIS
  5
1EF
 10
13.4760
 20
4.81630
 30
0.000000
  70
    32
  0
VERTEX
  8
AM_VIS
  5
1F0
 10
13.4752
 20
4.81641
 30
0.000000
  70
    32
  0
VERTEX
  8
AM_VIS
  5
1F1
 10
13.4743
 20
4.81651
 30
0.000000
  70
    32
  0
VERTEX
  8
AM_VIS
  5
1F2
 10
13.4735
 20
4.81661
 30
0.000000
  70
    32
  0
VERTEX
  8
AM_VIS
  5
1F3
 10
13.4727
 20
4.81671
 30
0.000000
  70
    32
  0
VERTEX
  8
AM_VIS
  5
1F4
 10
13.4719
 20
4.81681
 30
0.000000
  70
    32
  0
VERTEX
  8
AM_VIS
  5
1F5
 10
13.4710
 20
4.81691
 30
0.000000
  70
    32
  0
VERTEX
  8
AM_VIS
  5
1F6
 10
13.4702
 20
4.81701
 30
0.000000
  70
    32
  0
VERTEX
  8
AM_VIS
  5
1F7
 10
13.4694
 20
4.81711
 30
0.000000
  70
    32
  0
VERTEX
  8
AM_VIS
  5
1F8
 10
13.4685
 20
4.81721
 30
0.000000
  70
    32
  0
VERTEX
  8
AM_VIS
  5
1F9
 10
13.4677
 20
4.81731
 30
0.000000
  70
    32
  0
VERTEX
  8
AM_VIS
  5
1FA
 10
13.4669
 20
4.81741
 30
0.000000
  70
    32
  0
VERTEX
  8
AM_VIS
  5
1FB
 10
13.4661
 20
4.81751
 30
0.000000
  70
    32
  0
VERTEX
  8
AM_VIS
  5
1FC
 10
13.4652
 20
4.81760
 30
0.000000
  70
    32
  0
VERTEX
  8
AM_VIS
  5
1FD
 10
13.4644
 20
4.81770
 30
0.000000
  70
    32
  0
VERTEX
  8
AM_VIS
  5
1FE
 10
13.4636
 20
4.81780
 30
0.000000
  70
    32
  0
VERTEX
  8
AM_VIS
  5
1FF
 10
13.4627
 20
4.81789
 30
0.000000
  70
    32
  0
VERTEX
  8
AM_VIS
  5
200
 10
13.4619
 20
4.81798
 30
0.000000
  70
    32
  0
VERTEX
  8
AM_VIS
  5
201
 10
13.4611
 20
4.81808
 30
0.000000
  70
    32
  0
VERTEX
  8
AM_VIS
  5
202
 10
13.4602
 20
4.81817
 30
0.000000
  70
    32
  0
VERTEX
  8
AM_VIS
  5
203
 10
13.4594
 20
4.81826
 30
0.000000
  70
    32
  0
VERTEX
  8
AM_VIS
  5
204
 10
13.4586
 20
4.81836
 30
0.000000
  70
    32
  0
VERTEX
  8
AM_VIS
  5
205
 10
13.4577
 20
4.81845
 30
0.000000
  70
    32
  0
VERTEX
  8
AM_VIS
  5
206
 10
13.4569
 20
4.81854
 30
0.000000
  70
    32
  0
VERTEX
  8
AM_VIS
  5
207
 10
13.4561
 20
4.81863
 30
0.000000
  70
    32
  0
VERTEX
  8
AM_VIS
  5
208
 10
13.4552
 20
4.81872
 30
0.000000
  70
    32
  0
VERTEX
  8
AM_VIS
  5
209
 10
13.4544
 20
4.81880
 30
0.000000
  70
    32
  0
VERTEX
  8
AM_VIS
  5
20A
 10
13.4536
 20
4.81889
 30
0.000000
  70
    32
  0
VERTEX
  8
AM_VIS
  5
20B
 10
13.4527
 20
4.81898
 30
0.000000
  70
    32
  0
VERTEX
  8
AM_VIS
  5
20C
 10
13.4519
 20
4.81906
 30
0.000000
  70
    32
  0
VERTEX
  8
AM_VIS
  5
20D
 10
13.4511
 20
4.81915
 30
0.000000
  70
    32
  0
VERTEX
  8
AM_VIS
  5
20E
 10
13.4502
 20
4.81923
 30
0.000000
  70
    32
  0
VERTEX
  8
AM_VIS
  5
20F
 10
13.4494
 20
4.81932
 30
0.000000
  70
    32
  0
VERTEX
  8
AM_VIS
  5
210
 10
13.4486
 20
4.81940
 30
0.000000
  70
    32
  0
VERTEX
  8
AM_VIS
  5
211
 10
13.4477
 20
4.81948
 30
0.000000
  70
    32
  0
VERTEX
  8
AM_VIS
  5
212
 10
13.4469
 20
4.81957
 30
0.000000
  70
    32
  0
VERTEX
  8
AM_VIS
  5
213
 10
13.4460
 20
4.81965
 30
0.000000
  70
    32
  0
VERTEX
  8
AM_VIS
  5
214
 10
13.4452
 20
4.81973
 30
0.000000
  70
    32
  0
VERTEX
  8
AM_VIS
  5
215
 10
13.4444
 20
4.81981
 30
0.000000
  70
    32
  0
VERTEX
  8
AM_VIS
  5
216
 10
13.4435
 20
4.81989
 30
0.000000
  70
    32
  0
VERTEX
  8
AM_VIS
  5
217
 10
13.4427
 20
4.81996
 30
0.000000
  70
    32
  0
VERTEX
  8
AM_VIS
  5
218
 10
13.4419
 20
4.82004
 30
0.000000
  70
    32
  0
VERTEX
  8
AM_VIS
  5
219
 10
13.4410
 20
4.82012
 30
0.000000
  70
    32
  0
VERTEX
  8
AM_VIS
  5
21A
 10
13.4402
 20
4.82019
 30
0.000000
  70
    32
  0
VERTEX
  8
AM_VIS
  5
21B
 10
13.4393
 20
4.82027
 30
0.000000
  70
    32
  0
VERTEX
  8
AM_VIS
  5
21C
 10
13.4385
 20
4.82034
 30
0.000000
  70
    32
  0
VERTEX
  8
AM_VIS
  5
21D
 10
13.4376
 20
4.82042
 30
0.000000
  70
    32
  0
VERTEX
  8
AM_VIS
  5
21E
 10
13.4368
 20
4.82049
 30
0.000000
  70
    32
  0
VERTEX
  8
AM_VIS
  5
21F
 10
13.4360
 20
4.82056
 30
0.000000
  70
    32
  0
VERTEX
  8
AM_VIS
  5
220
 10
13.4351
 20
4.82063
 30
0.000000
  70
    32
  0
VERTEX
  8
AM_VIS
  5
221
 10
13.4343
 20
4.82070
 30
0.000000
  70
    32
  0
VERTEX
  8
AM_VIS
  5
222
 10
13.4334
 20
4.82077
 30
0.000000
  70
    32
  0
VERTEX
  8
AM_VIS
  5
223
 10
13.4326
 20
4.82084
 30
0.000000
  70
    32
  0
VERTEX
  8
AM_VIS
  5
224
 10
13.4317
 20
4.82090
 30
0.000000
  70
    32
  0
VERTEX
  8
AM_VIS
  5
225
 10
13.4309
 20
4.82097
 30
0.000000
  70
    32
  0
VERTEX
  8
AM_VIS
  5
226
 10
13.4300
 20
4.82104
 30
0.000000
  70
    32
  0
VERTEX
  8
AM_VIS
  5
227
 10
13.4292
 20
4.82110
 30
0.000000
  70
    32
  0
VERTEX
  8
AM_VIS
  5
228
 10
13.4283
 20
4.82116
 30
0.000000
  70
    32
  0
VERTEX
  8
AM_VIS
  5
229
 10
13.4275
 20
4.82123
 30
0.000000
  70
    32
  0
VERTEX
  8
AM_VIS
  5
22A
 10
13.4266
 20
4.82129
 30
0.000000
  70
    32
  0
VERTEX
  8
AM_VIS
  5
22B
 10
13.4258
 20
4.82135
 30
0.000000
  70
    32
  0
VERTEX
  8
AM_VIS
  5
22C
 10
13.4249
 20
4.82141
 30
0.000000
  70
    32
  0
VERTEX
  8
AM_VIS
  5
22D
 10
13.4240
 20
4.82147
 30
0.000000
  70
    32
  0
VERTEX
  8
AM_VIS
  5
22E
 10
13.4232
 20
4.82153
 30
0.000000
  70
    32
  0
VERTEX
  8
AM_VIS
  5
22F
 10
13.4223
 20
4.82158
 30
0.000000
  70
    32
  0
VERTEX
  8
AM_VIS
  5
230
 10
13.4215
 20
4.82164
 30
0.000000
  70
    32
  0
VERTEX
  8
AM_VIS
  5
231
 10
13.4206
 20
4.82169
 30
0.000000
  70
    32
  0
VERTEX
  8
AM_VIS
  5
232
 10
13.4198
 20
4.82175
 30
0.000000
  70
    32
  0
VERTEX
  8
AM_VIS
  5
233
 10
13.4189
 20
4.82180
 30
0.000000
  70
    32
  0
VERTEX
  8
AM_VIS
  5
234
 10
13.4180
 20
4.82185
 30
0.000000
  70
    32
  0
VERTEX
  8
AM_VIS
  5
235
 10
13.4172
 20
4.82191
 30
0.000000
  70
    32
  0
VERTEX
  8
AM_VIS
  5
236
 10
13.4163
 20
4.82196
 30
0.000000
  70
    32
  0
VERTEX
  8
AM_VIS
  5
237
 10
13.4154
 20
4.82200
 30
0.000000
  70
    32
  0
VERTEX
  8
AM_VIS
  5
238
 10
13.4146
 20
4.82205
 30
0.000000
  70
    32
  0
VERTEX
  8
AM_VIS
  5
239
 10
13.4137
 20
4.82210
 30
0.000000
  70
    32
  0
VERTEX
  8
AM_VIS
  5
23A
 10
13.4128
 20
4.82215
 30
0.000000
  70
    32
  0
VERTEX
  8
AM_VIS
  5
23B
 10
13.4120
 20
4.82219
 30
0.000000
  70
    32
  0
VERTEX
  8
AM_VIS
  5
23C
 10
13.4111
 20
4.82224
 30
0.000000
  70
    32
  0
VERTEX
  8
AM_VIS
  5
23D
 10
13.4102
 20
4.82228
 30
0.000000
  70
    32
  0
VERTEX
  8
AM_VIS
  5
23E
 10
13.4094
 20
4.82232
 30
0.000000
  70
    32
  0
VERTEX
  8
AM_VIS
  5
23F
 10
13.4085
 20
4.82236
 30
0.000000
  70
    32
  0
VERTEX
  8
AM_VIS
  5
240
 10
13.4076
 20
4.82240
 30
0.000000
  70
    32
  0
VERTEX
  8
AM_VIS
  5
241
 10
13.4067
 20
4.82244
 30
0.000000
  70
    32
  0
VERTEX
  8
AM_VIS
  5
242
 10
13.4059
 20
4.82248
 30
0.000000
  70
    32
  0
VERTEX
  8
AM_VIS
  5
243
 10
13.4050
 20
4.82251
 30
0.000000
  70
    32
  0
VERTEX
  8
AM_VIS
  5
244
 10
13.4041
 20
4.82255
 30
0.000000
  70
    32
  0
VERTEX
  8
AM_VIS
  5
245
 10
13.4032
 20
4.82258
 30
0.000000
  70
    32
  0
VERTEX
  8
AM_VIS
  5
246
 10
13.4024
 20
4.82262
 30
0.000000
  70
    32
  0
VERTEX
  8
AM_VIS
  5
247
 10
13.4015
 20
4.82265
 30
0.000000
  70
    32
  0
VERTEX
  8
AM_VIS
  5
248
 10
13.4006
 20
4.82268
 30
0.000000
  70
    32
  0
VERTEX
  8
AM_VIS
  5
249
 10
13.3997
 20
4.82271
 30
0.000000
  70
    32
  0
VERTEX
  8
AM_VIS
  5
24A
 10
13.3988
 20
4.82274
 30
0.000000
  70
    32
  0
VERTEX
  8
AM_VIS
  5
24B
 10
13.3979
 20
4.82277
 30
0.000000
  70
    32
  0
VERTEX
  8
AM_VIS
  5
24C
 10
13.3970
 20
4.82279
 30
0.000000
  70
    32
  0
VERTEX
  8
AM_VIS
  5
24D
 10
13.3962
 20
4.82282
 30
0.000000
  70
    32
  0
VERTEX
  8
AM_VIS
  5
24E
 10
13.3953
 20
4.82284
 30
0.000000
  70
    32
  0
VERTEX
  8
AM_VIS
  5
24F
 10
13.3944
 20
4.82287
 30
0.000000
  70
    32
  0
VERTEX
  8
AM_VIS
  5
250
 10
13.3935
 20
4.82289
 30
0.000000
  70
    32
  0
VERTEX
  8
AM_VIS
  5
251
 10
13.3926
 20
4.82291
 30
0.000000
  70
    32
  0
VERTEX
  8
AM_VIS
  5
252
 10
13.3917
 20
4.82293
 30
0.000000
  70
    32
  0
VERTEX
  8
AM_VIS
  5
253
 10
13.3908
 20
4.82295
 30
0.000000
  70
    32
  0
VERTEX
  8
AM_VIS
  5
254
 10
13.3899
 20
4.82296
 30
0.000000
  70
    32
  0
VERTEX
  8
AM_VIS
  5
255
 10
13.3890
 20
4.82298
 30
0.000000
  70
    32
  0
VERTEX
  8
AM_VIS
  5
256
 10
13.3881
 20
4.82299
 30
0.000000
  70
    32
  0
VERTEX
  8
AM_VIS
  5
257
 10
13.3872
 20
4.82301
 30
0.000000
  70
    32
  0
VERTEX
  8
AM_VIS
  5
258
 10
13.3863
 20
4.82302
 30
0.000000
  70
    32
  0
VERTEX
  8
AM_VIS
  5
259
 10
13.3854
 20
4.82303
 30
0.000000
  70
    32
  0
VERTEX
  8
AM_VIS
  5
25A
 10
13.3845
 20
4.82304
 30
0.000000
  70
    32
  0
VERTEX
  8
AM_VIS
  5
25B
 10
13.3836
 20
4.82305
 30
0.000000
  70
    32
  0
VERTEX
  8
AM_VIS
  5
25C
 10
13.3827
 20
4.82306
 30
0.000000
  70
    32
  0
VERTEX
  8
AM_VIS
  5
25D
 10
13.3817
 20
4.82306
 30
0.000000
  70
    32
  0
VERTEX
  8
AM_VIS
  5
25E
 10
13.3808
 20
4.82307
 30
0.000000
  70
    32
  0
VERTEX
  8
AM_VIS
  5
25F
 10
13.3799
 20
4.82307
 30
0.000000
  70
    32
  0
VERTEX
  8
AM_VIS
  5
260
 10
13.3790
 20
4.82307
 30
0.000000
  70
    32
  0
VERTEX
  8
AM_VIS
  5
261
 10
13.3781
 20
4.82307
 30
0.000000
  70
    32
  0
SEQEND
  8
AM_VIS
  5
262
  0
POLYLINE
  8
AM_VIS
  5
263
  66
     1
 10
0.000000
 20
0.000000
 30
0.000000
  70
     8
  0
VERTEX
  8
AM_VIS
  5
264
 10
13.3781
 20
4.82307
 30
0.000000
  70
    32
  0
VERTEX
  8
AM_VIS
  5
265
 10
13.3772
 20
4.82307
 30
0.000000
  70
    32
  0
VERTEX
  8
AM_VIS
  5
266
 10
13.3763
 20
4.82307
 30
0.000000
  70
    32
  0
VERTEX
  8
AM_VIS
  5
267
 10
13.3753
 20
4.82307
 30
0.000000
  70
    32
  0
VERTEX
  8
AM_VIS
  5
268
 10
13.3744
 20
4.82306
 30
0.000000
  70
    32
  0
VERTEX
  8
AM_VIS
  5
269
 10
13.3735
 20
4.82306
 30
0.000000
  70
    32
  0
VERTEX
  8
AM_VIS
  5
26A
 10
13.3726
 20
4.82305
 30
0.000000
  70
    32
  0
VERTEX
  8
AM_VIS
  5
26B
 10
13.3717
 20
4.82304
 30
0.000000
  70
    32
  0
VERTEX
  8
AM_VIS
  5
26C
 10
13.3708
 20
4.82303
 30
0.000000
  70
    32
  0
VERTEX
  8
AM_VIS
  5
26D
 10
13.3699
 20
4.82302
 30
0.000000
  70
    32
  0
VERTEX
  8
AM_VIS
  5
26E
 10
13.3690
 20
4.82301
 30
0.000000
  70
    32
  0
VERTEX
  8
AM_VIS
  5
26F
 10
13.3681
 20
4.82299
 30
0.000000
  70
    32
  0
VERTEX
  8
AM_VIS
  5
270
 10
13.3672
 20
4.82298
 30
0.000000
  70
    32
  0
VERTEX
  8
AM_VIS
  5
271
 10
13.3663
 20
4.82296
 30
0.000000
  70
    32
  0
VERTEX
  8
AM_VIS
  5
272
 10
13.3654
 20
4.82295
 30
0.000000
  70
    32
  0
VERTEX
  8
AM_VIS
  5
273
 10
13.3645
 20
4.82293
 30
0.000000
  70
    32
  0
VERTEX
  8
AM_VIS
  5
274
 10
13.3636
 20
4.82291
 30
0.000000
  70
    32
  0
VERTEX
  8
AM_VIS
  5
275
 10
13.3627
 20
4.82289
 30
0.000000
  70
    32
  0
VERTEX
  8
AM_VIS
  5
276
 10
13.3618
 20
4.82287
 30
0.000000
  70
    32
  0
VERTEX
  8
AM_VIS
  5
277
 10
13.3609
 20
4.82284
 30
0.000000
  70
    32
  0
VERTEX
  8
AM_VIS
  5
278
 10
13.3600
 20
4.82282
 30
0.000000
  70
    32
  0
VERTEX
  8
AM_VIS
  5
279
 10
13.3591
 20
4.82279
 30
0.000000
  70
    32
  0
VERTEX
  8
AM_VIS
  5
27A
 10
13.3583
 20
4.82277
 30
0.000000
  70
    32
  0
VERTEX
  8
AM_VIS
  5
27B
 10
13.3574
 20
4.82274
 30
0.000000
  70
    32
  0
VERTEX
  8
AM_VIS
  5
27C
 10
13.3565
 20
4.82271
 30
0.000000
  70
    32
  0
VERTEX
  8
AM_VIS
  5
27D
 10
13.3556
 20
4.82268
 30
0.000000
  70
    32
  0
VERTEX
  8
AM_VIS
  5
27E
 10
13.3547
 20
4.82265
 30
0.000000
  70
    32
  0
VERTEX
  8
AM_VIS
  5
27F
 10
13.3538
 20
4.82262
 30
0.000000
  70
    32
  0
VERTEX
  8
AM_VIS
  5
280
 10
13.3530
 20
4.82258
 30
0.000000
  70
    32
  0
VERTEX
  8
AM_VIS
  5
281
 10
13.3521
 20
4.82255
 30
0.000000
  70
    32
  0
VERTEX
  8
AM_VIS
  5
282
 10
13.3512
 20
4.82251
 30
0.000000
  70
    32
  0
VERTEX
  8
AM_VIS
  5
283
 10
13.3503
 20
4.82248
 30
0.000000
  70
    32
  0
VERTEX
  8
AM_VIS
  5
284
 10
13.3494
 20
4.82244
 30
0.000000
  70
    32
  0
VERTEX
  8
AM_VIS
  5
285
 10
13.3486
 20
4.82240
 30
0.000000
  70
    32
  0
VERTEX
  8
AM_VIS
  5
286
 10
13.3477
 20
4.82236
 30
0.000000
  70
    32
  0
VERTEX
  8
AM_VIS
  5
287
 10
13.3468
 20
4.82232
 30
0.000000
  70
    32
  0
VERTEX
  8
AM_VIS
  5
288
 10
13.3459
 20
4.82228
 30
0.000000
  70
    32
  0
VERTEX
  8
AM_VIS
  5
289
 10
13.3451
 20
4.82224
 30
0.000000
  70
    32
  0
VERTEX
  8
AM_VIS
  5
28A
 10
13.3442
 20
4.82219
 30
0.000000
  70
    32
  0
VERTEX
  8
AM_VIS
  5
28B
 10
13.3433
 20
4.82215
 30
0.000000
  70
    32
  0
VERTEX
  8
AM_VIS
  5
28C
 10
13.3425
 20
4.82210
 30
0.000000
  70
    32
  0
VERTEX
  8
AM_VIS
  5
28D
 10
13.3416
 20
4.82205
 30
0.000000
  70
    32
  0
VERTEX
  8
AM_VIS
  5
28E
 10
13.3407
 20
4.82200
 30
0.000000
  70
    32
  0
VERTEX
  8
AM_VIS
  5
28F
 10
13.3399
 20
4.82196
 30
0.000000
  70
    32
  0
VERTEX
  8
AM_VIS
  5
290
 10
13.3390
 20
4.82191
 30
0.000000
  70
    32
  0
VERTEX
  8
AM_VIS
  5
291
 10
13.3381
 20
4.82185
 30
0.000000
  70
    32
  0
VERTEX
  8
AM_VIS
  5
292
 10
13.3373
 20
4.82180
 30
0.000000
  70
    32
  0
VERTEX
  8
AM_VIS
  5
293
 10
13.3364
 20
4.82175
 30
0.000000
  70
    32
  0
VERTEX
  8
AM_VIS
  5
294
 10
13.3356
 20
4.82169
 30
0.000000
  70
    32
  0
VERTEX
  8
AM_VIS
  5
295
 10
13.3347
 20
4.82164
 30
0.000000
  70
    32
  0
VERTEX
  8
AM_VIS
  5
296
 10
13.3339
 20
4.82158
 30
0.000000
  70
    32
  0
VERTEX
  8
AM_VIS
  5
297
 10
13.3330
 20
4.82153
 30
0.000000
  70
    32
  0
VERTEX
  8
AM_VIS
  5
298
 10
13.3321
 20
4.82147
 30
0.000000
  70
    32
  0
VERTEX
  8
AM_VIS
  5
299
 10
13.3313
 20
4.82141
 30
0.000000
  70
    32
  0
VERTEX
  8
AM_VIS
  5
29A
 10
13.3304
 20
4.82135
 30
0.000000
  70
    32
  0
VERTEX
  8
AM_VIS
  5
29B
 10
13.3296
 20
4.82129
 30
0.000000
  70
    32
  0
VERTEX
  8
AM_VIS
  5
29C
 10
13.3287
 20
4.82123
 30
0.000000
  70
    32
  0
VERTEX
  8
AM_VIS
  5
29D
 10
13.3279
 20
4.82116
 30
0.000000
  70
    32
  0
VERTEX
  8
AM_VIS
  5
29E
 10
13.3270
 20
4.82110
 30
0.000000
  70
    32
  0
VERTEX
  8
AM_VIS
  5
29F
 10
13.3262
 20
4.82104
 30
0.000000
  70
    32
  0
VERTEX
  8
AM_VIS
  5
2A0
 10
13.3253
 20
4.82097
 30
0.000000
  70
    32
  0
VERTEX
  8
AM_VIS
  5
2A1
 10
13.3245
 20
4.82090
 30
0.000000
  70
    32
  0
VERTEX
  8
AM_VIS
  5
2A2
 10
13.3236
 20
4.82084
 30
0.000000
  70
    32
  0
VERTEX
  8
AM_VIS
  5
2A3
 10
13.3228
 20
4.82077
 30
0.000000
  70
    32
  0
VERTEX
  8
AM_VIS
  5
2A4
 10
13.3219
 20
4.82070
 30
0.000000
  70
    32
  0
VERTEX
  8
AM_VIS
  5
2A5
 10
13.3211
 20
4.82063
 30
0.000000
  70
    32
  0
VERTEX
  8
AM_VIS
  5
2A6
 10
13.3202
 20
4.82056
 30
0.000000
  70
    32
  0
VERTEX
  8
AM_VIS
  5
2A7
 10
13.3194
 20
4.82049
 30
0.000000
  70
    32
  0
VERTEX
  8
AM_VIS
  5
2A8
 10
13.3185
 20
4.82042
 30
0.000000
  70
    32
  0
VERTEX
  8
AM_VIS
  5
2A9
 10
13.3177
 20
4.82034
 30
0.000000
  70
    32
  0
VERTEX
  8
AM_VIS
  5
2AA
 10
13.3169
 20
4.82027
 30
0.000000
  70
    32
  0
VERTEX
  8
AM_VIS
  5
2AB
 10
13.3160
 20
4.82019
 30
0.000000
  70
    32
  0
VERTEX
  8
AM_VIS
  5
2AC
 10
13.3152
 20
4.82012
 30
0.000000
  70
    32
  0
VERTEX
  8
AM_VIS
  5
2AD
 10
13.3143
 20
4.82004
 30
0.000000
  70
    32
  0
VERTEX
  8
AM_VIS
  5
2AE
 10
13.3135
 20
4.81996
 30
0.000000
  70
    32
  0
VERTEX
  8
AM_VIS
  5
2AF
 10
13.3126
 20
4.81989
 30
0.000000
  70
    32
  0
VERTEX
  8
AM_VIS
  5
2B0
 10
13.3118
 20
4.81981
 30
0.000000
  70
    32
  0
VERTEX
  8
AM_VIS
  5
2B1
 10
13.3110
 20
4.81973
 30
0.000000
  70
    32
  0
VERTEX
  8
AM_VIS
  5
2B2
 10
13.3101
 20
4.81965
 30
0.000000
  70
    32
  0
VERTEX
  8
AM_VIS
  5
2B3
 10
13.3093
 20
4.81957
 30
0.000000
  70
    32
  0
VERTEX
  8
AM_VIS
  5
2B4
 10
13.3085
 20
4.81948
 30
0.000000
  70
    32
  0
VERTEX
  8
AM_VIS
  5
2B5
 10
13.3076
 20
4.81940
 30
0.000000
  70
    32
  0
VERTEX
  8
AM_VIS
  5
2B6
 10
13.3068
 20
4.81932
 30
0.000000
  70
    32
  0
VERTEX
  8
AM_VIS
  5
2B7
 10
13.3059
 20
4.81923
 30
0.000000
  70
    32
  0
VERTEX
  8
AM_VIS
  5
2B8
 10
13.3051
 20
4.81915
 30
0.000000
  70
    32
  0
VERTEX
  8
AM_VIS
  5
2B9
 10
13.3043
 20
4.81906
 30
0.000000
  70
    32
  0
VERTEX
  8
AM_VIS
  5
2BA
 10
13.3034
 20
4.81898
 30
0.000000
  70
    32
  0
VERTEX
  8
AM_VIS
  5
2BB
 10
13.3026
 20
4.81889
 30
0.000000
  70
    32
  0
VERTEX
  8
AM_VIS
  5
2BC
 10
13.3018
 20
4.81880
 30
0.000000
  70
    32
  0
VERTEX
  8
AM_VIS
  5
2BD
 10
13.3009
 20
4.81872
 30
0.000000
  70
    32
  0
VERTEX
  8
AM_VIS
  5
2BE
 10
13.3001
 20
4.81863
 30
0.000000
  70
    32
  0
VERTEX
  8
AM_VIS
  5
2BF
 10
13.2993
 20
4.81854
 30
0.000000
  70
    32
  0
VERTEX
  8
AM_VIS
  5
2C0
 10
13.2984
 20
4.81845
 30
0.000000
  70
    32
  0
VERTEX
  8
AM_VIS
  5
2C1
 10
13.2976
 20
4.81836
 30
0.000000
  70
    32
  0
VERTEX
  8
AM_VIS
  5
2C2
 10
13.2968
 20
4.81826
 30
0.000000
  70
    32
  0
VERTEX
  8
AM_VIS
  5
2C3
 10
13.2959
 20
4.81817
 30
0.000000
  70
    32
  0
VERTEX
  8
AM_VIS
  5
2C4
 10
13.2951
 20
4.81808
 30
0.000000
  70
    32
  0
VERTEX
  8
AM_VIS
  5
2C5
 10
13.2943
 20
4.81798
 30
0.000000
  70
    32
  0
VERTEX
  8
AM_VIS
  5
2C6
 10
13.2935
 20
4.81789
 30
0.000000
  70
    32
  0
VERTEX
  8
AM_VIS
  5
2C7
 10
13.2926
 20
4.81780
 30
0.000000
  70
    32
  0
VERTEX
  8
AM_VIS
  5
2C8
 10
13.2918
 20
4.81770
 30
0.000000
  70
    32
  0
VERTEX
  8
AM_VIS
  5
2C9
 10
13.2910
 20
4.81760
 30
0.000000
  70
    32
  0
VERTEX
  8
AM_VIS
  5
2CA
 10
13.2901
 20
4.81751
 30
0.000000
  70
    32
  0
VERTEX
  8
AM_VIS
  5
2CB
 10
13.2893
 20
4.81741
 30
0.000000
  70
    32
  0
VERTEX
  8
AM_VIS
  5
2CC
 10
13.2885
 20
4.81731
 30
0.000000
  70
    32
  0
VERTEX
  8
AM_VIS
  5
2CD
 10
13.2876
 20
4.81721
 30
0.000000
  70
    32
  0
VERTEX
  8
AM_VIS
  5
2CE
 10
13.2868
 20
4.81711
 30
0.000000
  70
    32
  0
VERTEX
  8
AM_VIS
  5
2CF
 10
13.2860
 20
4.81701
 30
0.000000
  70
    32
  0
VERTEX
  8
AM_VIS
  5
2D0
 10
13.2852
 20
4.81691
 30
0.000000
  70
    32
  0
VERTEX
  8
AM_VIS
  5
2D1
 10
13.2843
 20
4.81681
 30
0.000000
  70
    32
  0
VERTEX
  8
AM_VIS
  5
2D2
 10
13.2835
 20
4.81671
 30
0.000000
  70
    32
  0
VERTEX
  8
AM_VIS
  5
2D3
 10
13.2827
 20
4.81661
 30
0.000000
  70
    32
  0
VERTEX
  8
AM_VIS
  5
2D4
 10
13.2818
 20
4.81651
 30
0.000000
  70
    32
  0
VERTEX
  8
AM_VIS
  5
2D5
 10
13.2810
 20
4.81641
 30
0.000000
  70
    32
  0
VERTEX
  8
AM_VIS
  5
2D6
 10
13.2802
 20
4.81630
 30
0.000000
  70
    32
  0
VERTEX
  8
AM_VIS
  5
2D7
 10
13.2794
 20
4.81620
 30
0.000000
  70
    32
  0
VERTEX
  8
AM_VIS
  5
2D8
 10
13.2785
 20
4.81609
 30
0.000000
  70
    32
  0
VERTEX
  8
AM_VIS
  5
2D9
 10
13.2777
 20
4.81599
 30
0.000000
  70
    32
  0
VERTEX
  8
AM_VIS
  5
2DA
 10
13.2769
 20
4.81588
 30
0.000000
  70
    32
  0
VERTEX
  8
AM_VIS
  5
2DB
 10
13.2760
 20
4.81578
 30
0.000000
  70
    32
  0
VERTEX
  8
AM_VIS
  5
2DC
 10
13.2752
 20
4.81567
 30
0.000000
  70
    32
  0
VERTEX
  8
AM_VIS
  5
2DD
 10
13.2744
 20
4.81556
 30
0.000000
  70
    32
  0
VERTEX
  8
AM_VIS
  5
2DE
 10
13.2736
 20
4.81546
 30
0.000000
  70
    32
  0
VERTEX
  8
AM_VIS
  5
2DF
 10
13.2727
 20
4.81535
 30
0.000000
  70
    32
  0
VERTEX
  8
AM_VIS
  5
2E0
 10
13.2719
 20
4.81524
 30
0.000000
  70
    32
  0
VERTEX
  8
AM_VIS
  5
2E1
 10
13.2711
 20
4.81513
 30
0.000000
  70
    32
  0
VERTEX
  8
AM_VIS
  5
2E2
 10
13.2702
 20
4.81502
 30
0.000000
  70
    32
  0
VERTEX
  8
AM_VIS
  5
2E3
 10
13.2694
 20
4.81491
 30
0.000000
  70
    32
  0
SEQEND
  8
AM_VIS
  5
2E4
  0
ARC
  5
33
  8
AM_VIS
 10
13.850591278542071
 20
4.8844737421460671
 30
0.0
 40
0.1799999999999985
 50
179.9999999999998
 51
242.04681311661921
  0
LINE
  5
34
  8
AM_VIS
 10
13.378091278541371
 20
4.957076218564711
 30
0.0
 11
13.56245421916984
 21
4.957076218564711
 31
0.0
  0
LINE
  5
35
  8
AM_VIS
 10
13.19372833791431
 20
4.957076218564711
 30
0.0
 11
13.378091278542771
 21
4.957076218564711
 31
0.0
  0
ARC
  5
36
  8
AM_VIS
 10
12.905591278542079
 20
4.8844737421460671
 30
0.0
 40
0.1799999999999985
 50
297.95318688338079
 51
0.0
  0
LINE
  5
37
  8
AM_VIS
 10
13.56245421916984
 20
4.9570762185646053
 30
0.0
 11
13.670591278542069
 21
4.9570762185646053
 31
0.0
  0
LINE
  5
38
  8
AM_VIS
 10
13.08559127854207
 20
4.9570762185646053
 30
0.0
 11
13.19372833791431
 21
4.9570762185646053
 31
0.0
  0
CIRCLE
  5
39
  8
AM_VIS
 10
13.378091278542071
 20
3.9940762185646048
 30
0.0
 40
0.8279999999999999
  0
CIRCLE
  5
3A
  8
AM_VIS
 10
13.378091278542071
 20
3.9940762185646048
 30
0.0
 40
0.7200000000000001
  0
LINE
  5
3B
  8
AM_VIS
 10
12.676091278542071
 20
4.1540637180762801
 30
0.0
 11
12.676091278542071
 21
3.8340887190529278
 31
0.0
  0
LINE
  5
3C
  8
AM_VIS
 10
12.676091278542071
 20
4.714076218564605
 30
0.0
 11
12.676091278542071
 21
4.4331434116000201
 31
0.0
  0
LINE
  5
3D
  8
AM_VIS
 10
12.676091278542071
 20
3.5550090255291891
 30
0.0
 11
12.676091278542071
 21
3.2740762185646051
 31
0.0
  0
LINE
  5
3E
  8
AM_VIS
 10
11.02009127854207
 20
4.714076218564605
 30
0.0
 11
11.02009127854207
 21
3.2740762185646051
 31
0.0
  0
LINE
  5
3F
  8
AM_HID
 10
12.56809127854207
 20
4.714076218564605
 30
0.0
 11
12.56809127854207
 21
4.1657852748196502
 31
0.0
  0
LINE
  5
42
  8
AM_HID
 10
12.56809127854207
 20
3.8223671623095599
 30
0.0
 11
12.56809127854207
 21
3.2740762185646051
 31
0.0
  0
LINE
  5
43
  8
AM_HID
 10
11.128091278542071
 20
4.714076218564605
 30
0.0
 11
11.128091278542071
 21
3.2740762185646051
 31
0.0
  0
LINE
  5
44
  8
AM_VIS
 10
13.670591278542069
 20
4.9570762185646053
 30
0.0
 11
13.670591278542069
 21
4.8844737421460671
 31
0.0
  0
LINE
  5
45
  8
AM_VIS
 10
13.08559127854207
 20
4.8844737421460671
 30
0.0
 11
13.08559127854207
 21
4.9570762185646053
 31
0.0
  0
LINE
  5
46
  8
AM_HID
 10
13.60309127854207
 20
4.9570762185646053
 30
0.0
 11
13.60309127854207
 21
4.6780170054752848
 31
0.0
  0
LINE
  5
47
  8
AM_HID
 10
13.153091278542069
 20
4.9570762185646053
 30
0.0
 11
13.153091278542069
 21
4.6780170054752848
 31
0.0
  0
LINE
  5
14A
  8
0
 10
11.84809127854207
 20
4.7590762185646041
 30
0.0
 11
11.84809127854207
 21
5.4911818784423083
 31
0.0
  0
LINE
  5
14B
  8
0
 10
13.378091278542071
 20
4.0390762185646052
 30
0.0
 11
13.378091278542071
 21
5.4911818784423083
 31
0.0
  0
LINE
  5
14C
  8
0
 10
11.938091278542069
 20
5.3615818784423084
 30
0.0
 11
12.34579127854207
 21
5.3615818784423084
 31
0.0
  0
LINE
  5
14D
  8
0
 10
13.288091278542071
 20
5.3615818784423084
 30
0.0
 11
12.880391278542071
 21
5.3615818784423084
 31
0.0
  0
SOLID
  5
14E
  8
0
 10
11.938091278542069
 20
5.3765818784423081
 30
0.0
 11
11.938091278542069
 21
5.3465818784423069
 31
0.0
 12
11.84809127854207
 22
5.3615818784423084
 32
0.0
 13
11.84809127854207
 23
5.3615818784423084
 33
0.0
  0
SOLID
  5
14F
  8
0
 10
13.288091278542071
 20
5.3765818784423081
 30
0.0
 11
13.288091278542071
 21
5.3465818784423069
 31
0.0
 12
13.378091278542071
 22
5.3615818784423084
 32
0.0
 13
13.378091278542071
 23
5.3615818784423084
 33
0.0
  0
INSERT
  5
150
  8
0
  2
*U4
 10
0.0
 20
0.0
 30
0.0
  0
INSERT
  5
167
  8
0
  2
*U8
 10
0.0
 20
0.0
 30
0.0
  0
INSERT
  5
168
  8
0
  2
*U9
 10
0.0
 20
0.0
 30
0.0
  0
ENDSEC
  0
EOF
