  0
SECTION
  2
HEADER
  9
$ACADVER
  1
AC1009
  9
$INSBASE
 10
0.0
 20
0.0
 30
0.0
  9
$EXTMIN
 10
4.2467782201628372
 20
3.5014199874493062
 30
0.0
  9
$EXTMAX
 10
8.7831464817129241
 20
5.3014199874493073
 30
0.0
  9
$LIMMIN
 10
0.0
 20
0.0
  9
$LIMMAX
 10
12.0
 20
9.0
  9
$ORTHOMODE
 70
     1
  9
$REGENMODE
 70
     0
  9
$FILLMODE
 70
     1
  9
$QTEXTMODE
 70
     0
  9
$MIRRTEXT
 70
     0
  9
$DRAGMODE
 70
     2
  9
$LTSCALE
 40
1.0
  9
$OSMODE
 70
    55
  9
$ATTMODE
 70
     1
  9
$TEXTSIZE
 40
0.12
  9
$TRACEWID
 40
0.05
  9
$TEXTSTYLE
  7
ADESK1
  9
$CLAYER
  8
0
  9
$CELTYPE
  6
BYLAYER
  9
$CECOLOR
 62
   256
  9
$DIMSCALE
 40
1.0
  9
$DIMASZ
 40
0.125
  9
$DIMEXO
 40
0.0625
  9
$DIMDLI
 40
0.38
  9
$DIMRND
 40
0.0
  9
$DIMDLE
 40
0.0
  9
$DIMEXE
 40
0.18
  9
$DIMTP
 40
0.0
  9
$DIMTM
 40
0.0
  9
$DIMTXT
 40
0.09375
  9
$DIMCEN
 40
-0.125
  9
$DIMTSZ
 40
0.0
  9
$DIMTOL
 70
     0
  9
$DIMLIM
 70
     0
  9
$DIMTIH
 70
     0
  9
$DIMTOH
 70
     0
  9
$DIMSE1
 70
     0
  9
$DIMSE2
 70
     0
  9
$DIMTAD
 70
     0
  9
$DIMZIN
 70
     3
  9
$DIMBLK
  1

  9
$DIMASO
 70
     0
  9
$DIMSHO
 70
     1
  9
$DIMPOST
  1

  9
$DIMAPOST
  1

  9
$DIMALT
 70
     0
  9
$DIMALTD
 70
     2
  9
$DIMALTF
 40
25.399999999999999
  9
$DIMLFAC
 40
1.0
  9
$DIMTOFL
 70
     1
  9
$DIMTVP
 40
0.0
  9
$DIMTIX
 70
     0
  9
$DIMSOXD
 70
     0
  9
$DIMSAH
 70
     0
  9
$DIMBLK1
  1

  9
$DIMBLK2
  1

  9
$DIMSTYLE
  2
STANDARD
  9
$DIMCLRD
 70
     0
  9
$DIMCLRE
 70
     0
  9
$DIMCLRT
 70
     0
  9
$DIMTFAC
 40
1.0
  9
$DIMGAP
 40
0.09
  9
$LUNITS
 70
     4
  9
$LUPREC
 70
     4
  9
$SKETCHINC
 40
0.1
  9
$FILLETRAD
 40
0.0
  9
$AUNITS
 70
     0
  9
$AUPREC
 70
     4
  9
$MENU
  1
.
  9
$ELEVATION
 40
0.0
  9
$PELEVATION
 40
0.0
  9
$THICKNESS
 40
0.0
  9
$LIMCHECK
 70
     0
  9
$BLIPMODE
 70
     0
  9
$CHAMFERA
 40
0.5
  9
$CHAMFERB
 40
0.5
  9
$SKPOLY
 70
     0
  9
$TDCREATE
 40
2451065.3838062501
  9
$TDUPDATE
 40
2453913.57608853
  9
$TDINDWG
 40
0.0278040509
  9
$TDUSRTIMER
 40
0.0278040509
  9
$USRTIMER
 70
     1
  9
$ANGBASE
 50
0.0
  9
$ANGDIR
 70
     0
  9
$PDMODE
 70
    34
  9
$PDSIZE
 40
3.0
  9
$PLINEWID
 40
0.0
  9
$COORDS
 70
     1
  9
$SPLFRAME
 70
     0
  9
$SPLINETYPE
 70
     6
  9
$SPLINESEGS
 70
     8
  9
$ATTDIA
 70
     0
  9
$ATTREQ
 70
     1
  9
$HANDLING
 70
     1
  9
$HANDSEED
  5
5C9
  9
$SURFTAB1
 70
     6
  9
$SURFTAB2
 70
     6
  9
$SURFTYPE
 70
     6
  9
$SURFU
 70
     6
  9
$SURFV
 70
     6
  9
$UCSNAME
  2

  9
$UCSORG
 10
0.0
 20
0.0
 30
0.0
  9
$UCSXDIR
 10
1.0
 20
0.0
 30
0.0
  9
$UCSYDIR
 10
0.0
 20
1.0
 30
0.0
  9
$PUCSNAME
  2

  9
$PUCSORG
 10
0.0
 20
0.0
 30
0.0
  9
$PUCSXDIR
 10
1.0
 20
0.0
 30
0.0
  9
$PUCSYDIR
 10
0.0
 20
1.0
 30
0.0
  9
$USERI1
 70
     0
  9
$USERI2
 70
     0
  9
$USERI3
 70
     0
  9
$USERI4
 70
     0
  9
$USERI5
 70
     0
  9
$USERR1
 40
0.0
  9
$USERR2
 40
0.0
  9
$USERR3
 40
0.0
  9
$USERR4
 40
0.0
  9
$USERR5
 40
0.0
  9
$WORLDVIEW
 70
     1
  9
$SHADEDGE
 70
     3
  9
$SHADEDIF
 70
    70
  9
$TILEMODE
 70
     1
  9
$MAXACTVP
 70
    48
  9
$PLIMCHECK
 70
     0
  9
$PEXTMIN
 10
3.5513604663387559
 20
3.105440649441273
 30
0.0
  9
$PEXTMAX
 10
8.3788604663387574
 20
5.7054406494412753
 30
0.0
  9
$PLIMMIN
 10
-0.1579164520023376
 20
-0.2812499887361301
  9
$PLIMMAX
 10
10.84208330770177
 20
8.2187497709679782
  9
$UNITMODE
 70
     0
  9
$VISRETAIN
 70
     1
  9
$PLINEGEN
 70
     0
  9
$PSLTSCALE
 70
     1
  0
ENDSEC
  0
SECTION
  2
TABLES
  0
TABLE
  2
VPORT
 70
     2
  0
VPORT
  2
*ACTIVE
 70
     0
 10
0.0
 20
0.0
 11
1.0
 21
1.0
 12
1.791124296392554
 22
-0.2833823502834427
 13
0.0
 23
0.0
 14
0.5
 24
0.5
 15
0.5
 25
0.5
 16
0.0
 26
0.0
 36
1.0
 17
5.9651104613387558
 27
4.5390640699792479
 37
0.0
 40
4.8842071444100839
 41
2.3227848101265818
 42
50.0
 43
0.0
 44
0.0
 50
0.0
 51
0.0
 71
     0
 72
   100
 73
     1
 74
     1
 75
     0
 76
     0
 77
     0
 78
     0
  0
ENDTAB
  0
TABLE
  2
LTYPE
 70
    18
  0
LTYPE
  2
CONTINUOUS
 70
     0
  3
Solid line
 72
    65
 73
     0
 40
0.0
  0
LTYPE
  2
HIDDEN
 70
     0
  3
__ __ __ __ __ __ __ __ __ __ __ __ __ __ __ __
 72
    65
 73
     2
 40
0.375
 49
0.25
 49
-0.125
  0
LTYPE
  2
PHANTOM2
 70
     0
  3
Phantom (.5x) ___ _ _ ___ _ _ ___ _ _ ___ _ _
 72
    65
 73
     6
 40
1.25
 49
0.625
 49
-0.125
 49
0.125
 49
-0.125
 49
0.125
 49
-0.125
  0
LTYPE
  2
CENTER
 70
     0
  3
Center ____ _ ____ _ ____ _ ____ _ ____ _ ____
 72
    65
 73
     4
 40
2.0
 49
1.25
 49
-0.25
 49
0.25
 49
-0.25
  0
LTYPE
  2
ASULTYPE
 70
     0
  3
Solid line
 72
    65
 73
     2
 40
3.0
 49
2.5
 49
0.5
  0
LTYPE
  2
ASVLTYPE
 70
     0
  3
__ __ __ __ __ __ __ __ __ __ __ __ __ __ __ __ __ __ __ __ __
 72
    65
 73
     2
 40
0.75
 49
0.5
 49
-0.25
  0
LTYPE
  2
AM_ISO02W050
 70
     0
  3
__ __ __ __ __ __ __ __ __ __ __ __ __ __ __
 72
    65
 73
     2
 40
7.5
 49
6.0
 49
-1.5
  0
LTYPE
  2
AM_ISO08W050
 70
     0
  3
____ . ____ . ____ . ____ . ____ . ____ . ____
 72
    65
 73
     4
 40
18.0
 49
12.0
 49
-1.5
 49
3.0
 49
-1.5
  0
LTYPE
  2
AM_ISO09W050
 70
     0
  3
_____ . . _____ . . _____ . . ____ .. ____
 72
    65
 73
     6
 40
22.5
 49
12.0
 49
-1.5
 49
3.0
 49
-1.5
 49
3.0
 49
-1.5
  0
LTYPE
  2
AMCONSTR
 70
     0
  3
_______________________
 72
    65
 73
     2
 40
9999.0
 49
9999.0
 49
0.0
  0
LTYPE
  2
AM_ISO08W050X2
 70
     0
  3
__ . __ . __ . __ . __ . __
 72
    65
 73
     4
 40
9.0
 49
6.0
 49
-0.75
 49
1.5
 49
-0.75
  0
LTYPE
  2
AM_ISO02W050X2
 70
     0
  3
 _ _ _ _ _ _ _ _ _ _ _ _
 72
    65
 73
     2
 40
3.75
 49
3.0
 49
-0.75
  0
LTYPE
  2
AMZIGZAG
 70
     0
  3
/\/-/\/-/\/-/\/-/\/-/\/
 72
    65
 73
     2
 40
11.0001
 49
0.0001
 49
-11.0
  0
LTYPE
  2
CENTER2
 70
     0
  3
Center (.5x) ___ _ ___ _ ___ _ ___ _ ___ _ ___
 72
    65
 73
     4
 40
1.125
 49
0.75
 49
-0.125
 49
0.125
 49
-0.125
  0
LTYPE
  2
HIDDEN2
 70
     0
  3
Hidden (.5x) _ _ _ _ _ _ _ _ _ _ _ _ _ _ _ _ _
 72
    65
 73
     2
 40
0.1875
 49
0.125
 49
-0.0625
  0
LTYPE
  2
AMZIGZAG2
 70
     0
  3
/\/-/\/-/\/-/\/-/\/-/\/
 72
    65
 73
     2
 40
0.4401
 49
0.0001
 49
-0.4400000000000001
  0
LTYPE
  2
ACANSTGB
 70
     0
  3
__ . . __ . .
 72
    65
 73
     6
 40
0.35433070866
 49
0.15748031496
 49
-0.03937007874
 49
0.03937007874
 49
-0.03937007874
 49
0.03937007874
 49
-0.03937007874
  0
LTYPE
  2
ACANSTGL
 70
     0
  3
_ _ _ _ _
 72
    65
 73
     2
 40
0.11811023622
 49
0.07874015748
 49
-0.03937007874
  0
ENDTAB
  0
TABLE
  2
LAYER
 70
     3
  0
LAYER
  2
0
 70
     0
 62
     7
  6
CONTINUOUS
  0
LAYER
  2
AM_VIS
 70
     0
 62
     7
  6
CONTINUOUS
  0
LAYER
  2
AM_HID
 70
     0
 62
     7
  6
HIDDEN
  0
ENDTAB
  0
TABLE
  2
STYLE
 70
     5
  0
STYLE
  2
STANDARD
 70
     0
 40
0.0
 41
1.0
 50
0.0
 71
     0
 42
0.2
  3
txt
  4

  0
STYLE
  2
ADESK1
 70
     0
 40
0.0
 41
1.0
 50
0.0
 71
     0
 42
0.12
  3
romans.shx
  4

  0
STYLE
  2

 70
     1
 40
0.0
 41
1.0
 50
0.0
 71
     0
 42
0.12
  3
ltypeshp.shx
  4

  0
STYLE
  2
ACANSTS
 70
     0
 40
1.0
 41
1.0
 50
0.0
 71
     0
 42
0.12
  3
romans.shx
  4

  0
STYLE
  2
ACANSGDT
 70
     0
 40
0.0
 41
1.0
 50
0.0
 71
     0
 42
0.12
  3
amgdtans.shx
  4

  0
ENDTAB
  0
TABLE
  2
VIEW
 70
     0
  0
ENDTAB
  0
TABLE
  2
UCS
 70
     0
  0
ENDTAB
  0
TABLE
  2
APPID
 70
    13
  0
APPID
  2
ACAD
 70
     0
  0
APPID
  2
GENIUS_GENDIM_13
 70
     0
  0
APPID
  2
GENIUS_GENDTOL_13
 70
     0
  0
APPID
  2
GENIUS_GE3DTOL_13
 70
     0
  0
APPID
  2
MCAD_NO_VIS
 70
     0
  0
APPID
  2
ACAD_TEMP_GRAPHIC
 70
     0
  0
APPID
  2
AD_DRAW
 70
     0
  0
APPID
  2
ACATTRIBSERVICES
 70
     0
  0
APPID
  2
ASURF_PCURVE_APPNAME
 70
     0
  0
APPID
  2
AMG_3D2D_5_0
 70
     0
  0
APPID
  2
DESIGNERASSEMBLIES
 70
     0
  0
APPID
  2
ACADM_DIM_EDIT
 70
     0
  0
APPID
  2
AMDT_DM_ADJ
 70
     0
  0
ENDTAB
  0
TABLE
  2
DIMSTYLE
 70
     7
  0
DIMSTYLE
  2
STANDARD
 70
     0
  3

  4

  5

  6

  7

 40
1.0
 41
0.18
 42
0.0625
 43
0.38
 44
0.18
 45
0.0
 46
0.0
 47
0.0
 48
0.0
140
0.18
141
0.09
142
0.0
143
25.399999999999999
144
1.0
145
0.0
146
1.0
147
0.09
 71
     0
 72
     0
 73
     1
 74
     1
 75
     0
 76
     0
 77
     0
 78
     0
170
     0
171
     2
172
     0
173
     0
174
     0
175
     0
176
     0
177
     0
178
     0
  0
DIMSTYLE
  2
AM_ANSI
 70
     0
  3

  4
mm
  5

  6

  7

 40
1.0
 41
0.1
 42
0.05
 43
0.5
 44
0.1
 45
0.0
 46
0.0
 47
0.1
 48
0.1
140
0.12
141
0.0
142
0.0
143
25.399999999999999
144
1.0
145
0.0
146
0.71
147
0.06
 71
     0
 72
     0
 73
     1
 74
     1
 75
     0
 76
     0
 77
     0
 78
     7
170
     0
171
     2
172
     0
173
     0
174
     0
175
     0
176
   256
177
   256
178
     2
  0
DIMSTYLE
  2
AM_ANSI$3
 70
     0
  3

  4
mm
  5

  6

  7

 40
1.0
 41
0.1
 42
0.05
 43
0.5
 44
0.1
 45
0.0
 46
0.0
 47
0.1
 48
0.1
140
0.12
141
0.0
142
0.0
143
25.399999999999999
144
1.0
145
0.0
146
0.71
147
0.06
 71
     0
 72
     0
 73
     1
 74
     1
 75
     0
 76
     0
 77
     0
 78
     7
170
     0
171
     2
172
     0
173
     0
174
     0
175
     0
176
   256
177
   256
178
     2
  0
DIMSTYLE
  2
AM_ANSI$4
 70
     0
  3

  4
mm
  5

  6

  7

 40
1.0
 41
0.1
 42
0.05
 43
0.5
 44
0.1
 45
0.0
 46
0.0
 47
0.1
 48
0.1
140
0.12
141
0.0
142
0.0
143
25.399999999999999
144
1.0
145
0.0
146
0.71
147
0.06
 71
     0
 72
     0
 73
     1
 74
     1
 75
     0
 76
     0
 77
     0
 78
     7
170
     0
171
     2
172
     0
173
     0
174
     0
175
     0
176
   256
177
   256
178
     2
  0
DIMSTYLE
  2
AM_ANSI$7
 70
     0
  3

  4
mm
  5

  6

  7

 40
1.0
 41
0.1
 42
0.05
 43
0.5
 44
0.1
 45
0.0
 46
0.0
 47
0.1
 48
0.1
140
0.24
141
0.0
142
0.0
143
25.399999999999999
144
1.0
145
0.0
146
0.71
147
0.06
 71
     0
 72
     0
 73
     1
 74
     1
 75
     0
 76
     0
 77
     0
 78
     7
170
     0
171
     2
172
     0
173
     0
174
     0
175
     0
176
   256
177
   256
178
     2
  0
DIMSTYLE
  2
AM_ANSI$SF
 70
     0
  3

  4
mm
  5

  6

  7

 40
1.0
 41
0.1
 42
0.05
 43
0.5
 44
0.1
 45
0.0
 46
0.0
 47
0.1
 48
0.1
140
0.12
141
0.0
142
0.0
143
25.399999999999999
144
1.0
145
0.0
146
0.71
147
0.06
 71
     0
 72
     0
 73
     1
 74
     1
 75
     1
 76
     1
 77
     0
 78
     7
170
     0
171
     2
172
     0
173
     0
174
     0
175
     0
176
   256
177
   256
178
     2
  0
DIMSTYLE
  2
AM_ANSI$SH
 70
     0
  3

  4
mm
  5

  6
GENAXEH
  7

 40
1.0
 41
0.1
 42
0.05
 43
0.5
 44
0.1
 45
0.0
 46
0.0
 47
0.1
 48
0.1
140
0.12
141
0.0
142
0.0
143
25.399999999999999
144
1.0
145
0.0
146
0.71
147
0.06
 71
     0
 72
     0
 73
     1
 74
     1
 75
     1
 76
     1
 77
     0
 78
     7
170
     0
171
     2
172
     0
173
     1
174
     0
175
     0
176
   256
177
   256
178
     2
  0
ENDTAB
  0
ENDSEC
  0
SECTION
  2
BLOCKS
  0
BLOCK
  8
0
  2
$MODEL_SPACE
 70
     0
 10
0.0
 20
0.0
 30
0.0
  3
$MODEL_SPACE
  1

  0
ENDBLK
  5
A
  8
0
  0
BLOCK
 67
     1
  8
0
  2
$PAPER_SPACE
 70
     0
 10
0.0
 20
0.0
 30
0.0
  3
$PAPER_SPACE
  1

  0
ENDBLK
  5
F
 67
     1
  8
0
  0
BLOCK
  8
0
  2
*U0
 70
     1
 10
0.0
 20
0.0
 30
0.0
  3
*U0
  1

  0
ENDBLK
  5
F9
  8
0
  0
BLOCK
  8
0
  2
GENAXEH
 70
     0
 10
0.0
 20
0.0
 30
0.0
  3
GENAXEH
  1

  0
LINE
  5
136
  8
0
 10
-1.0
 20
0.0
 30
0.0
 11
1.0
 21
0.0
 31
0.0
  0
ENDBLK
  5
138
  8
0
  0
BLOCK
  8
0
  2
*U2
 70
     1
 10
0.0
 20
0.0
 30
0.0
  3
*U2
  1

  0
TEXT
  5
184
  8
0
 10
8.6573071959986354
 20
4.148294987449308
 30
0.0
 40
0.084375
  1
1-7/8"
 50
90.0
  7
ADESK1
  0
ENDBLK
  5
186
  8
0
  0
ENDSEC
  0
SECTION
  2
ENTITIES
  0
LINE
  5
26
  8
AM_VIS
 10
7.869278220162836
 20
5.3014199874493073
 30
0.0
 11
5.805410517297207
 21
5.3014199874493073
 31
0.0
  0
LINE
  5
28
  8
AM_VIS
 10
5.8054105172972061
 20
3.501419987449307
 30
0.0
 11
5.8054105172972061
 21
5.3014199874493073
 31
0.0
  0
LINE
  5
29
  8
AM_VIS
 10
5.8054105172972061
 20
3.501419987449307
 30
0.0
 11
7.869278220162836
 21
3.501419987449307
 31
0.0
  0
POLYLINE
  8
AM_VIS
  5
187
  66
     1
 10
0.000000
 20
0.000000
 30
0.000000
  70
     8
  0
VERTEX
  8
AM_VIS
  5
188
 10
7.15974
 20
4.40142
 30
0.000000
  70
    32
  0
VERTEX
  8
AM_VIS
  5
189
 10
7.15974
 20
4.40320
 30
0.000000
  70
    32
  0
VERTEX
  8
AM_VIS
  5
18A
 10
7.15972
 20
4.40498
 30
0.000000
  70
    32
  0
VERTEX
  8
AM_VIS
  5
18B
 10
7.15969
 20
4.40677
 30
0.000000
  70
    32
  0
VERTEX
  8
AM_VIS
  5
18C
 10
7.15965
 20
4.40856
 30
0.000000
  70
    32
  0
VERTEX
  8
AM_VIS
  5
18D
 10
7.15960
 20
4.41035
 30
0.000000
  70
    32
  0
VERTEX
  8
AM_VIS
  5
18E
 10
7.15954
 20
4.41214
 30
0.000000
  70
    32
  0
VERTEX
  8
AM_VIS
  5
18F
 10
7.15946
 20
4.41394
 30
0.000000
  70
    32
  0
VERTEX
  8
AM_VIS
  5
190
 10
7.15938
 20
4.41573
 30
0.000000
  70
    32
  0
VERTEX
  8
AM_VIS
  5
191
 10
7.15928
 20
4.41753
 30
0.000000
  70
    32
  0
VERTEX
  8
AM_VIS
  5
192
 10
7.15918
 20
4.41933
 30
0.000000
  70
    32
  0
VERTEX
  8
AM_VIS
  5
193
 10
7.15906
 20
4.42114
 30
0.000000
  70
    32
  0
VERTEX
  8
AM_VIS
  5
194
 10
7.15893
 20
4.42294
 30
0.000000
  70
    32
  0
VERTEX
  8
AM_VIS
  5
195
 10
7.15879
 20
4.42475
 30
0.000000
  70
    32
  0
VERTEX
  8
AM_VIS
  5
196
 10
7.15863
 20
4.42655
 30
0.000000
  70
    32
  0
VERTEX
  8
AM_VIS
  5
197
 10
7.15847
 20
4.42836
 30
0.000000
  70
    32
  0
VERTEX
  8
AM_VIS
  5
198
 10
7.15830
 20
4.43017
 30
0.000000
  70
    32
  0
VERTEX
  8
AM_VIS
  5
199
 10
7.15811
 20
4.43198
 30
0.000000
  70
    32
  0
VERTEX
  8
AM_VIS
  5
19A
 10
7.15791
 20
4.43379
 30
0.000000
  70
    32
  0
VERTEX
  8
AM_VIS
  5
19B
 10
7.15770
 20
4.43561
 30
0.000000
  70
    32
  0
VERTEX
  8
AM_VIS
  5
19C
 10
7.15748
 20
4.43742
 30
0.000000
  70
    32
  0
VERTEX
  8
AM_VIS
  5
19D
 10
7.15725
 20
4.43923
 30
0.000000
  70
    32
  0
VERTEX
  8
AM_VIS
  5
19E
 10
7.15701
 20
4.44104
 30
0.000000
  70
    32
  0
VERTEX
  8
AM_VIS
  5
19F
 10
7.15676
 20
4.44286
 30
0.000000
  70
    32
  0
VERTEX
  8
AM_VIS
  5
1A0
 10
7.15649
 20
4.44467
 30
0.000000
  70
    32
  0
VERTEX
  8
AM_VIS
  5
1A1
 10
7.15622
 20
4.44649
 30
0.000000
  70
    32
  0
VERTEX
  8
AM_VIS
  5
1A2
 10
7.15593
 20
4.44830
 30
0.000000
  70
    32
  0
VERTEX
  8
AM_VIS
  5
1A3
 10
7.15563
 20
4.45011
 30
0.000000
  70
    32
  0
VERTEX
  8
AM_VIS
  5
1A4
 10
7.15532
 20
4.45193
 30
0.000000
  70
    32
  0
VERTEX
  8
AM_VIS
  5
1A5
 10
7.15500
 20
4.45374
 30
0.000000
  70
    32
  0
VERTEX
  8
AM_VIS
  5
1A6
 10
7.15467
 20
4.45555
 30
0.000000
  70
    32
  0
VERTEX
  8
AM_VIS
  5
1A7
 10
7.15433
 20
4.45737
 30
0.000000
  70
    32
  0
VERTEX
  8
AM_VIS
  5
1A8
 10
7.15397
 20
4.45918
 30
0.000000
  70
    32
  0
VERTEX
  8
AM_VIS
  5
1A9
 10
7.15361
 20
4.46099
 30
0.000000
  70
    32
  0
VERTEX
  8
AM_VIS
  5
1AA
 10
7.15323
 20
4.46280
 30
0.000000
  70
    32
  0
VERTEX
  8
AM_VIS
  5
1AB
 10
7.15284
 20
4.46461
 30
0.000000
  70
    32
  0
VERTEX
  8
AM_VIS
  5
1AC
 10
7.15244
 20
4.46641
 30
0.000000
  70
    32
  0
VERTEX
  8
AM_VIS
  5
1AD
 10
7.15204
 20
4.46822
 30
0.000000
  70
    32
  0
VERTEX
  8
AM_VIS
  5
1AE
 10
7.15161
 20
4.47002
 30
0.000000
  70
    32
  0
VERTEX
  8
AM_VIS
  5
1AF
 10
7.15118
 20
4.47183
 30
0.000000
  70
    32
  0
VERTEX
  8
AM_VIS
  5
1B0
 10
7.15074
 20
4.47363
 30
0.000000
  70
    32
  0
VERTEX
  8
AM_VIS
  5
1B1
 10
7.15028
 20
4.47543
 30
0.000000
  70
    32
  0
VERTEX
  8
AM_VIS
  5
1B2
 10
7.14982
 20
4.47723
 30
0.000000
  70
    32
  0
VERTEX
  8
AM_VIS
  5
1B3
 10
7.14934
 20
4.47902
 30
0.000000
  70
    32
  0
VERTEX
  8
AM_VIS
  5
1B4
 10
7.14886
 20
4.48081
 30
0.000000
  70
    32
  0
VERTEX
  8
AM_VIS
  5
1B5
 10
7.14836
 20
4.48261
 30
0.000000
  70
    32
  0
VERTEX
  8
AM_VIS
  5
1B6
 10
7.14785
 20
4.48439
 30
0.000000
  70
    32
  0
VERTEX
  8
AM_VIS
  5
1B7
 10
7.14733
 20
4.48618
 30
0.000000
  70
    32
  0
VERTEX
  8
AM_VIS
  5
1B8
 10
7.14679
 20
4.48797
 30
0.000000
  70
    32
  0
VERTEX
  8
AM_VIS
  5
1B9
 10
7.14625
 20
4.48975
 30
0.000000
  70
    32
  0
VERTEX
  8
AM_VIS
  5
1BA
 10
7.14570
 20
4.49152
 30
0.000000
  70
    32
  0
VERTEX
  8
AM_VIS
  5
1BB
 10
7.14513
 20
4.49330
 30
0.000000
  70
    32
  0
VERTEX
  8
AM_VIS
  5
1BC
 10
7.14456
 20
4.49507
 30
0.000000
  70
    32
  0
VERTEX
  8
AM_VIS
  5
1BD
 10
7.14397
 20
4.49684
 30
0.000000
  70
    32
  0
VERTEX
  8
AM_VIS
  5
1BE
 10
7.14337
 20
4.49861
 30
0.000000
  70
    32
  0
VERTEX
  8
AM_VIS
  5
1BF
 10
7.14276
 20
4.50037
 30
0.000000
  70
    32
  0
VERTEX
  8
AM_VIS
  5
1C0
 10
7.14214
 20
4.50213
 30
0.000000
  70
    32
  0
VERTEX
  8
AM_VIS
  5
1C1
 10
7.14151
 20
4.50388
 30
0.000000
  70
    32
  0
VERTEX
  8
AM_VIS
  5
1C2
 10
7.14087
 20
4.50564
 30
0.000000
  70
    32
  0
VERTEX
  8
AM_VIS
  5
1C3
 10
7.14021
 20
4.50738
 30
0.000000
  70
    32
  0
VERTEX
  8
AM_VIS
  5
1C4
 10
7.13955
 20
4.50913
 30
0.000000
  70
    32
  0
VERTEX
  8
AM_VIS
  5
1C5
 10
7.13888
 20
4.51087
 30
0.000000
  70
    32
  0
VERTEX
  8
AM_VIS
  5
1C6
 10
7.13819
 20
4.51260
 30
0.000000
  70
    32
  0
VERTEX
  8
AM_VIS
  5
1C7
 10
7.13749
 20
4.51433
 30
0.000000
  70
    32
  0
VERTEX
  8
AM_VIS
  5
1C8
 10
7.13678
 20
4.51606
 30
0.000000
  70
    32
  0
VERTEX
  8
AM_VIS
  5
1C9
 10
7.13606
 20
4.51778
 30
0.000000
  70
    32
  0
VERTEX
  8
AM_VIS
  5
1CA
 10
7.13533
 20
4.51950
 30
0.000000
  70
    32
  0
VERTEX
  8
AM_VIS
  5
1CB
 10
7.13459
 20
4.52121
 30
0.000000
  70
    32
  0
VERTEX
  8
AM_VIS
  5
1CC
 10
7.13384
 20
4.52292
 30
0.000000
  70
    32
  0
VERTEX
  8
AM_VIS
  5
1CD
 10
7.13308
 20
4.52462
 30
0.000000
  70
    32
  0
VERTEX
  8
AM_VIS
  5
1CE
 10
7.13230
 20
4.52632
 30
0.000000
  70
    32
  0
VERTEX
  8
AM_VIS
  5
1CF
 10
7.13152
 20
4.52801
 30
0.000000
  70
    32
  0
VERTEX
  8
AM_VIS
  5
1D0
 10
7.13072
 20
4.52970
 30
0.000000
  70
    32
  0
VERTEX
  8
AM_VIS
  5
1D1
 10
7.12992
 20
4.53138
 30
0.000000
  70
    32
  0
VERTEX
  8
AM_VIS
  5
1D2
 10
7.12910
 20
4.53306
 30
0.000000
  70
    32
  0
VERTEX
  8
AM_VIS
  5
1D3
 10
7.12827
 20
4.53473
 30
0.000000
  70
    32
  0
VERTEX
  8
AM_VIS
  5
1D4
 10
7.12744
 20
4.53640
 30
0.000000
  70
    32
  0
VERTEX
  8
AM_VIS
  5
1D5
 10
7.12659
 20
4.53806
 30
0.000000
  70
    32
  0
VERTEX
  8
AM_VIS
  5
1D6
 10
7.12573
 20
4.53971
 30
0.000000
  70
    32
  0
VERTEX
  8
AM_VIS
  5
1D7
 10
7.12486
 20
4.54136
 30
0.000000
  70
    32
  0
VERTEX
  8
AM_VIS
  5
1D8
 10
7.12399
 20
4.54300
 30
0.000000
  70
    32
  0
VERTEX
  8
AM_VIS
  5
1D9
 10
7.12310
 20
4.54464
 30
0.000000
  70
    32
  0
VERTEX
  8
AM_VIS
  5
1DA
 10
7.12220
 20
4.54627
 30
0.000000
  70
    32
  0
VERTEX
  8
AM_VIS
  5
1DB
 10
7.12130
 20
4.54790
 30
0.000000
  70
    32
  0
VERTEX
  8
AM_VIS
  5
1DC
 10
7.12038
 20
4.54952
 30
0.000000
  70
    32
  0
VERTEX
  8
AM_VIS
  5
1DD
 10
7.11945
 20
4.55113
 30
0.000000
  70
    32
  0
VERTEX
  8
AM_VIS
  5
1DE
 10
7.11852
 20
4.55274
 30
0.000000
  70
    32
  0
VERTEX
  8
AM_VIS
  5
1DF
 10
7.11758
 20
4.55434
 30
0.000000
  70
    32
  0
VERTEX
  8
AM_VIS
  5
1E0
 10
7.11662
 20
4.55594
 30
0.000000
  70
    32
  0
VERTEX
  8
AM_VIS
  5
1E1
 10
7.11566
 20
4.55752
 30
0.000000
  70
    32
  0
VERTEX
  8
AM_VIS
  5
1E2
 10
7.11469
 20
4.55911
 30
0.000000
  70
    32
  0
VERTEX
  8
AM_VIS
  5
1E3
 10
7.11371
 20
4.56068
 30
0.000000
  70
    32
  0
VERTEX
  8
AM_VIS
  5
1E4
 10
7.11272
 20
4.56225
 30
0.000000
  70
    32
  0
VERTEX
  8
AM_VIS
  5
1E5
 10
7.11172
 20
4.56381
 30
0.000000
  70
    32
  0
VERTEX
  8
AM_VIS
  5
1E6
 10
7.11072
 20
4.56537
 30
0.000000
  70
    32
  0
VERTEX
  8
AM_VIS
  5
1E7
 10
7.10970
 20
4.56692
 30
0.000000
  70
    32
  0
VERTEX
  8
AM_VIS
  5
1E8
 10
7.10868
 20
4.56846
 30
0.000000
  70
    32
  0
VERTEX
  8
AM_VIS
  5
1E9
 10
7.10765
 20
4.56999
 30
0.000000
  70
    32
  0
VERTEX
  8
AM_VIS
  5
1EA
 10
7.10661
 20
4.57152
 30
0.000000
  70
    32
  0
VERTEX
  8
AM_VIS
  5
1EB
 10
7.10556
 20
4.57304
 30
0.000000
  70
    32
  0
VERTEX
  8
AM_VIS
  5
1EC
 10
7.10451
 20
4.57455
 30
0.000000
  70
    32
  0
VERTEX
  8
AM_VIS
  5
1ED
 10
7.10344
 20
4.57606
 30
0.000000
  70
    32
  0
VERTEX
  8
AM_VIS
  5
1EE
 10
7.10237
 20
4.57756
 30
0.000000
  70
    32
  0
VERTEX
  8
AM_VIS
  5
1EF
 10
7.10129
 20
4.57905
 30
0.000000
  70
    32
  0
VERTEX
  8
AM_VIS
  5
1F0
 10
7.10021
 20
4.58053
 30
0.000000
  70
    32
  0
VERTEX
  8
AM_VIS
  5
1F1
 10
7.09911
 20
4.58201
 30
0.000000
  70
    32
  0
VERTEX
  8
AM_VIS
  5
1F2
 10
7.09801
 20
4.58348
 30
0.000000
  70
    32
  0
VERTEX
  8
AM_VIS
  5
1F3
 10
7.09690
 20
4.58494
 30
0.000000
  70
    32
  0
VERTEX
  8
AM_VIS
  5
1F4
 10
7.09579
 20
4.58639
 30
0.000000
  70
    32
  0
VERTEX
  8
AM_VIS
  5
1F5
 10
7.09467
 20
4.58784
 30
0.000000
  70
    32
  0
VERTEX
  8
AM_VIS
  5
1F6
 10
7.09354
 20
4.58928
 30
0.000000
  70
    32
  0
VERTEX
  8
AM_VIS
  5
1F7
 10
7.09240
 20
4.59070
 30
0.000000
  70
    32
  0
VERTEX
  8
AM_VIS
  5
1F8
 10
7.09126
 20
4.59213
 30
0.000000
  70
    32
  0
VERTEX
  8
AM_VIS
  5
1F9
 10
7.09010
 20
4.59354
 30
0.000000
  70
    32
  0
VERTEX
  8
AM_VIS
  5
1FA
 10
7.08895
 20
4.59495
 30
0.000000
  70
    32
  0
VERTEX
  8
AM_VIS
  5
1FB
 10
7.08778
 20
4.59634
 30
0.000000
  70
    32
  0
VERTEX
  8
AM_VIS
  5
1FC
 10
7.08661
 20
4.59773
 30
0.000000
  70
    32
  0
VERTEX
  8
AM_VIS
  5
1FD
 10
7.08544
 20
4.59911
 30
0.000000
  70
    32
  0
VERTEX
  8
AM_VIS
  5
1FE
 10
7.08425
 20
4.60048
 30
0.000000
  70
    32
  0
VERTEX
  8
AM_VIS
  5
1FF
 10
7.08306
 20
4.60185
 30
0.000000
  70
    32
  0
VERTEX
  8
AM_VIS
  5
200
 10
7.08187
 20
4.60320
 30
0.000000
  70
    32
  0
VERTEX
  8
AM_VIS
  5
201
 10
7.08067
 20
4.60455
 30
0.000000
  70
    32
  0
VERTEX
  8
AM_VIS
  5
202
 10
7.07946
 20
4.60589
 30
0.000000
  70
    32
  0
VERTEX
  8
AM_VIS
  5
203
 10
7.07825
 20
4.60721
 30
0.000000
  70
    32
  0
VERTEX
  8
AM_VIS
  5
204
 10
7.07703
 20
4.60853
 30
0.000000
  70
    32
  0
VERTEX
  8
AM_VIS
  5
205
 10
7.07581
 20
4.60985
 30
0.000000
  70
    32
  0
VERTEX
  8
AM_VIS
  5
206
 10
7.07458
 20
4.61115
 30
0.000000
  70
    32
  0
VERTEX
  8
AM_VIS
  5
207
 10
7.07334
 20
4.61244
 30
0.000000
  70
    32
  0
VERTEX
  8
AM_VIS
  5
208
 10
7.07210
 20
4.61372
 30
0.000000
  70
    32
  0
VERTEX
  8
AM_VIS
  5
209
 10
7.07086
 20
4.61500
 30
0.000000
  70
    32
  0
VERTEX
  8
AM_VIS
  5
20A
 10
7.06960
 20
4.61626
 30
0.000000
  70
    32
  0
VERTEX
  8
AM_VIS
  5
20B
 10
7.06835
 20
4.61752
 30
0.000000
  70
    32
  0
VERTEX
  8
AM_VIS
  5
20C
 10
7.06709
 20
4.61877
 30
0.000000
  70
    32
  0
VERTEX
  8
AM_VIS
  5
20D
 10
7.06582
 20
4.62000
 30
0.000000
  70
    32
  0
VERTEX
  8
AM_VIS
  5
20E
 10
7.06455
 20
4.62123
 30
0.000000
  70
    32
  0
VERTEX
  8
AM_VIS
  5
20F
 10
7.06328
 20
4.62245
 30
0.000000
  70
    32
  0
VERTEX
  8
AM_VIS
  5
210
 10
7.06200
 20
4.62366
 30
0.000000
  70
    32
  0
VERTEX
  8
AM_VIS
  5
211
 10
7.06071
 20
4.62485
 30
0.000000
  70
    32
  0
VERTEX
  8
AM_VIS
  5
212
 10
7.05942
 20
4.62605
 30
0.000000
  70
    32
  0
VERTEX
  8
AM_VIS
  5
213
 10
7.05812
 20
4.62723
 30
0.000000
  70
    32
  0
VERTEX
  8
AM_VIS
  5
214
 10
7.05681
 20
4.62842
 30
0.000000
  70
    32
  0
VERTEX
  8
AM_VIS
  5
215
 10
7.05549
 20
4.62959
 30
0.000000
  70
    32
  0
VERTEX
  8
AM_VIS
  5
216
 10
7.05416
 20
4.63076
 30
0.000000
  70
    32
  0
VERTEX
  8
AM_VIS
  5
217
 10
7.05282
 20
4.63193
 30
0.000000
  70
    32
  0
VERTEX
  8
AM_VIS
  5
218
 10
7.05147
 20
4.63309
 30
0.000000
  70
    32
  0
VERTEX
  8
AM_VIS
  5
219
 10
7.05011
 20
4.63425
 30
0.000000
  70
    32
  0
VERTEX
  8
AM_VIS
  5
21A
 10
7.04874
 20
4.63540
 30
0.000000
  70
    32
  0
VERTEX
  8
AM_VIS
  5
21B
 10
7.04737
 20
4.63654
 30
0.000000
  70
    32
  0
VERTEX
  8
AM_VIS
  5
21C
 10
7.04599
 20
4.63768
 30
0.000000
  70
    32
  0
VERTEX
  8
AM_VIS
  5
21D
 10
7.04459
 20
4.63881
 30
0.000000
  70
    32
  0
VERTEX
  8
AM_VIS
  5
21E
 10
7.04319
 20
4.63994
 30
0.000000
  70
    32
  0
VERTEX
  8
AM_VIS
  5
21F
 10
7.04178
 20
4.64106
 30
0.000000
  70
    32
  0
VERTEX
  8
AM_VIS
  5
220
 10
7.04036
 20
4.64217
 30
0.000000
  70
    32
  0
VERTEX
  8
AM_VIS
  5
221
 10
7.03894
 20
4.64328
 30
0.000000
  70
    32
  0
VERTEX
  8
AM_VIS
  5
222
 10
7.03750
 20
4.64438
 30
0.000000
  70
    32
  0
VERTEX
  8
AM_VIS
  5
223
 10
7.03606
 20
4.64548
 30
0.000000
  70
    32
  0
VERTEX
  8
AM_VIS
  5
224
 10
7.03461
 20
4.64657
 30
0.000000
  70
    32
  0
VERTEX
  8
AM_VIS
  5
225
 10
7.03315
 20
4.64765
 30
0.000000
  70
    32
  0
VERTEX
  8
AM_VIS
  5
226
 10
7.03168
 20
4.64873
 30
0.000000
  70
    32
  0
VERTEX
  8
AM_VIS
  5
227
 10
7.03020
 20
4.64979
 30
0.000000
  70
    32
  0
VERTEX
  8
AM_VIS
  5
228
 10
7.02872
 20
4.65086
 30
0.000000
  70
    32
  0
VERTEX
  8
AM_VIS
  5
229
 10
7.02723
 20
4.65191
 30
0.000000
  70
    32
  0
VERTEX
  8
AM_VIS
  5
22A
 10
7.02573
 20
4.65296
 30
0.000000
  70
    32
  0
VERTEX
  8
AM_VIS
  5
22B
 10
7.02422
 20
4.65400
 30
0.000000
  70
    32
  0
VERTEX
  8
AM_VIS
  5
22C
 10
7.02271
 20
4.65504
 30
0.000000
  70
    32
  0
VERTEX
  8
AM_VIS
  5
22D
 10
7.02119
 20
4.65607
 30
0.000000
  70
    32
  0
VERTEX
  8
AM_VIS
  5
22E
 10
7.01966
 20
4.65709
 30
0.000000
  70
    32
  0
VERTEX
  8
AM_VIS
  5
22F
 10
7.01813
 20
4.65810
 30
0.000000
  70
    32
  0
VERTEX
  8
AM_VIS
  5
230
 10
7.01658
 20
4.65911
 30
0.000000
  70
    32
  0
VERTEX
  8
AM_VIS
  5
231
 10
7.01503
 20
4.66011
 30
0.000000
  70
    32
  0
VERTEX
  8
AM_VIS
  5
232
 10
7.01348
 20
4.66110
 30
0.000000
  70
    32
  0
VERTEX
  8
AM_VIS
  5
233
 10
7.01191
 20
4.66208
 30
0.000000
  70
    32
  0
VERTEX
  8
AM_VIS
  5
234
 10
7.01034
 20
4.66306
 30
0.000000
  70
    32
  0
VERTEX
  8
AM_VIS
  5
235
 10
7.00876
 20
4.66403
 30
0.000000
  70
    32
  0
VERTEX
  8
AM_VIS
  5
236
 10
7.00718
 20
4.66499
 30
0.000000
  70
    32
  0
VERTEX
  8
AM_VIS
  5
237
 10
7.00559
 20
4.66594
 30
0.000000
  70
    32
  0
VERTEX
  8
AM_VIS
  5
238
 10
7.00399
 20
4.66688
 30
0.000000
  70
    32
  0
VERTEX
  8
AM_VIS
  5
239
 10
7.00238
 20
4.66782
 30
0.000000
  70
    32
  0
VERTEX
  8
AM_VIS
  5
23A
 10
7.00077
 20
4.66875
 30
0.000000
  70
    32
  0
VERTEX
  8
AM_VIS
  5
23B
 10
6.99916
 20
4.66967
 30
0.000000
  70
    32
  0
VERTEX
  8
AM_VIS
  5
23C
 10
6.99753
 20
4.67058
 30
0.000000
  70
    32
  0
VERTEX
  8
AM_VIS
  5
23D
 10
6.99590
 20
4.67149
 30
0.000000
  70
    32
  0
VERTEX
  8
AM_VIS
  5
23E
 10
6.99427
 20
4.67238
 30
0.000000
  70
    32
  0
VERTEX
  8
AM_VIS
  5
23F
 10
6.99263
 20
4.67327
 30
0.000000
  70
    32
  0
VERTEX
  8
AM_VIS
  5
240
 10
6.99098
 20
4.67415
 30
0.000000
  70
    32
  0
VERTEX
  8
AM_VIS
  5
241
 10
6.98933
 20
4.67502
 30
0.000000
  70
    32
  0
VERTEX
  8
AM_VIS
  5
242
 10
6.98767
 20
4.67588
 30
0.000000
  70
    32
  0
VERTEX
  8
AM_VIS
  5
243
 10
6.98600
 20
4.67673
 30
0.000000
  70
    32
  0
VERTEX
  8
AM_VIS
  5
244
 10
6.98433
 20
4.67757
 30
0.000000
  70
    32
  0
VERTEX
  8
AM_VIS
  5
245
 10
6.98265
 20
4.67840
 30
0.000000
  70
    32
  0
VERTEX
  8
AM_VIS
  5
246
 10
6.98097
 20
4.67923
 30
0.000000
  70
    32
  0
VERTEX
  8
AM_VIS
  5
247
 10
6.97929
 20
4.68004
 30
0.000000
  70
    32
  0
VERTEX
  8
AM_VIS
  5
248
 10
6.97759
 20
4.68085
 30
0.000000
  70
    32
  0
VERTEX
  8
AM_VIS
  5
249
 10
6.97590
 20
4.68165
 30
0.000000
  70
    32
  0
VERTEX
  8
AM_VIS
  5
24A
 10
6.97419
 20
4.68244
 30
0.000000
  70
    32
  0
VERTEX
  8
AM_VIS
  5
24B
 10
6.97249
 20
4.68321
 30
0.000000
  70
    32
  0
VERTEX
  8
AM_VIS
  5
24C
 10
6.97077
 20
4.68398
 30
0.000000
  70
    32
  0
VERTEX
  8
AM_VIS
  5
24D
 10
6.96905
 20
4.68474
 30
0.000000
  70
    32
  0
VERTEX
  8
AM_VIS
  5
24E
 10
6.96733
 20
4.68549
 30
0.000000
  70
    32
  0
VERTEX
  8
AM_VIS
  5
24F
 10
6.96560
 20
4.68623
 30
0.000000
  70
    32
  0
VERTEX
  8
AM_VIS
  5
250
 10
6.96387
 20
4.68696
 30
0.000000
  70
    32
  0
VERTEX
  8
AM_VIS
  5
251
 10
6.96214
 20
4.68768
 30
0.000000
  70
    32
  0
VERTEX
  8
AM_VIS
  5
252
 10
6.96040
 20
4.68839
 30
0.000000
  70
    32
  0
VERTEX
  8
AM_VIS
  5
253
 10
6.95865
 20
4.68909
 30
0.000000
  70
    32
  0
VERTEX
  8
AM_VIS
  5
254
 10
6.95690
 20
4.68978
 30
0.000000
  70
    32
  0
VERTEX
  8
AM_VIS
  5
255
 10
6.95515
 20
4.69046
 30
0.000000
  70
    32
  0
VERTEX
  8
AM_VIS
  5
256
 10
6.95339
 20
4.69113
 30
0.000000
  70
    32
  0
VERTEX
  8
AM_VIS
  5
257
 10
6.95162
 20
4.69179
 30
0.000000
  70
    32
  0
VERTEX
  8
AM_VIS
  5
258
 10
6.94986
 20
4.69243
 30
0.000000
  70
    32
  0
VERTEX
  8
AM_VIS
  5
259
 10
6.94809
 20
4.69307
 30
0.000000
  70
    32
  0
VERTEX
  8
AM_VIS
  5
25A
 10
6.94631
 20
4.69370
 30
0.000000
  70
    32
  0
VERTEX
  8
AM_VIS
  5
25B
 10
6.94454
 20
4.69432
 30
0.000000
  70
    32
  0
VERTEX
  8
AM_VIS
  5
25C
 10
6.94275
 20
4.69492
 30
0.000000
  70
    32
  0
VERTEX
  8
AM_VIS
  5
25D
 10
6.94097
 20
4.69552
 30
0.000000
  70
    32
  0
VERTEX
  8
AM_VIS
  5
25E
 10
6.93918
 20
4.69611
 30
0.000000
  70
    32
  0
VERTEX
  8
AM_VIS
  5
25F
 10
6.93739
 20
4.69668
 30
0.000000
  70
    32
  0
VERTEX
  8
AM_VIS
  5
260
 10
6.93560
 20
4.69725
 30
0.000000
  70
    32
  0
VERTEX
  8
AM_VIS
  5
261
 10
6.93380
 20
4.69781
 30
0.000000
  70
    32
  0
VERTEX
  8
AM_VIS
  5
262
 10
6.93200
 20
4.69835
 30
0.000000
  70
    32
  0
VERTEX
  8
AM_VIS
  5
263
 10
6.93020
 20
4.69889
 30
0.000000
  70
    32
  0
VERTEX
  8
AM_VIS
  5
264
 10
6.92839
 20
4.69941
 30
0.000000
  70
    32
  0
VERTEX
  8
AM_VIS
  5
265
 10
6.92658
 20
4.69993
 30
0.000000
  70
    32
  0
VERTEX
  8
AM_VIS
  5
266
 10
6.92477
 20
4.70043
 30
0.000000
  70
    32
  0
VERTEX
  8
AM_VIS
  5
267
 10
6.92296
 20
4.70093
 30
0.000000
  70
    32
  0
VERTEX
  8
AM_VIS
  5
268
 10
6.92115
 20
4.70141
 30
0.000000
  70
    32
  0
VERTEX
  8
AM_VIS
  5
269
 10
6.91933
 20
4.70189
 30
0.000000
  70
    32
  0
VERTEX
  8
AM_VIS
  5
26A
 10
6.91751
 20
4.70235
 30
0.000000
  70
    32
  0
VERTEX
  8
AM_VIS
  5
26B
 10
6.91569
 20
4.70281
 30
0.000000
  70
    32
  0
VERTEX
  8
AM_VIS
  5
26C
 10
6.91387
 20
4.70325
 30
0.000000
  70
    32
  0
VERTEX
  8
AM_VIS
  5
26D
 10
6.91205
 20
4.70369
 30
0.000000
  70
    32
  0
VERTEX
  8
AM_VIS
  5
26E
 10
6.91022
 20
4.70411
 30
0.000000
  70
    32
  0
VERTEX
  8
AM_VIS
  5
26F
 10
6.90840
 20
4.70452
 30
0.000000
  70
    32
  0
VERTEX
  8
AM_VIS
  5
270
 10
6.90657
 20
4.70493
 30
0.000000
  70
    32
  0
VERTEX
  8
AM_VIS
  5
271
 10
6.90474
 20
4.70532
 30
0.000000
  70
    32
  0
VERTEX
  8
AM_VIS
  5
272
 10
6.90291
 20
4.70570
 30
0.000000
  70
    32
  0
VERTEX
  8
AM_VIS
  5
273
 10
6.90108
 20
4.70608
 30
0.000000
  70
    32
  0
VERTEX
  8
AM_VIS
  5
274
 10
6.89925
 20
4.70644
 30
0.000000
  70
    32
  0
VERTEX
  8
AM_VIS
  5
275
 10
6.89742
 20
4.70679
 30
0.000000
  70
    32
  0
VERTEX
  8
AM_VIS
  5
276
 10
6.89559
 20
4.70713
 30
0.000000
  70
    32
  0
VERTEX
  8
AM_VIS
  5
277
 10
6.89376
 20
4.70747
 30
0.000000
  70
    32
  0
VERTEX
  8
AM_VIS
  5
278
 10
6.89192
 20
4.70779
 30
0.000000
  70
    32
  0
VERTEX
  8
AM_VIS
  5
279
 10
6.89009
 20
4.70810
 30
0.000000
  70
    32
  0
VERTEX
  8
AM_VIS
  5
27A
 10
6.88826
 20
4.70840
 30
0.000000
  70
    32
  0
VERTEX
  8
AM_VIS
  5
27B
 10
6.88643
 20
4.70870
 30
0.000000
  70
    32
  0
VERTEX
  8
AM_VIS
  5
27C
 10
6.88459
 20
4.70898
 30
0.000000
  70
    32
  0
VERTEX
  8
AM_VIS
  5
27D
 10
6.88276
 20
4.70925
 30
0.000000
  70
    32
  0
VERTEX
  8
AM_VIS
  5
27E
 10
6.88093
 20
4.70951
 30
0.000000
  70
    32
  0
VERTEX
  8
AM_VIS
  5
27F
 10
6.87910
 20
4.70976
 30
0.000000
  70
    32
  0
VERTEX
  8
AM_VIS
  5
280
 10
6.87727
 20
4.71001
 30
0.000000
  70
    32
  0
VERTEX
  8
AM_VIS
  5
281
 10
6.87544
 20
4.71024
 30
0.000000
  70
    32
  0
VERTEX
  8
AM_VIS
  5
282
 10
6.87361
 20
4.71046
 30
0.000000
  70
    32
  0
VERTEX
  8
AM_VIS
  5
283
 10
6.87178
 20
4.71067
 30
0.000000
  70
    32
  0
VERTEX
  8
AM_VIS
  5
284
 10
6.86995
 20
4.71087
 30
0.000000
  70
    32
  0
VERTEX
  8
AM_VIS
  5
285
 10
6.86813
 20
4.71107
 30
0.000000
  70
    32
  0
VERTEX
  8
AM_VIS
  5
286
 10
6.86631
 20
4.71125
 30
0.000000
  70
    32
  0
VERTEX
  8
AM_VIS
  5
287
 10
6.86448
 20
4.71142
 30
0.000000
  70
    32
  0
VERTEX
  8
AM_VIS
  5
288
 10
6.86266
 20
4.71158
 30
0.000000
  70
    32
  0
VERTEX
  8
AM_VIS
  5
289
 10
6.86084
 20
4.71173
 30
0.000000
  70
    32
  0
VERTEX
  8
AM_VIS
  5
28A
 10
6.85902
 20
4.71187
 30
0.000000
  70
    32
  0
VERTEX
  8
AM_VIS
  5
28B
 10
6.85721
 20
4.71201
 30
0.000000
  70
    32
  0
VERTEX
  8
AM_VIS
  5
28C
 10
6.85540
 20
4.71213
 30
0.000000
  70
    32
  0
VERTEX
  8
AM_VIS
  5
28D
 10
6.85358
 20
4.71224
 30
0.000000
  70
    32
  0
VERTEX
  8
AM_VIS
  5
28E
 10
6.85177
 20
4.71234
 30
0.000000
  70
    32
  0
VERTEX
  8
AM_VIS
  5
28F
 10
6.84997
 20
4.71243
 30
0.000000
  70
    32
  0
VERTEX
  8
AM_VIS
  5
290
 10
6.84816
 20
4.71252
 30
0.000000
  70
    32
  0
VERTEX
  8
AM_VIS
  5
291
 10
6.84636
 20
4.71259
 30
0.000000
  70
    32
  0
VERTEX
  8
AM_VIS
  5
292
 10
6.84456
 20
4.71265
 30
0.000000
  70
    32
  0
VERTEX
  8
AM_VIS
  5
293
 10
6.84277
 20
4.71270
 30
0.000000
  70
    32
  0
VERTEX
  8
AM_VIS
  5
294
 10
6.84097
 20
4.71274
 30
0.000000
  70
    32
  0
VERTEX
  8
AM_VIS
  5
295
 10
6.83918
 20
4.71278
 30
0.000000
  70
    32
  0
VERTEX
  8
AM_VIS
  5
296
 10
6.83740
 20
4.71280
 30
0.000000
  70
    32
  0
VERTEX
  8
AM_VIS
  5
297
 10
6.83561
 20
4.71281
 30
0.000000
  70
    32
  0
VERTEX
  8
AM_VIS
  5
298
 10
6.83383
 20
4.71281
 30
0.000000
  70
    32
  0
VERTEX
  8
AM_VIS
  5
299
 10
6.83205
 20
4.71281
 30
0.000000
  70
    32
  0
VERTEX
  8
AM_VIS
  5
29A
 10
6.83027
 20
4.71279
 30
0.000000
  70
    32
  0
VERTEX
  8
AM_VIS
  5
29B
 10
6.82848
 20
4.71276
 30
0.000000
  70
    32
  0
VERTEX
  8
AM_VIS
  5
29C
 10
6.82669
 20
4.71272
 30
0.000000
  70
    32
  0
VERTEX
  8
AM_VIS
  5
29D
 10
6.82489
 20
4.71268
 30
0.000000
  70
    32
  0
VERTEX
  8
AM_VIS
  5
29E
 10
6.82309
 20
4.71262
 30
0.000000
  70
    32
  0
VERTEX
  8
AM_VIS
  5
29F
 10
6.82129
 20
4.71255
 30
0.000000
  70
    32
  0
VERTEX
  8
AM_VIS
  5
2A0
 10
6.81949
 20
4.71248
 30
0.000000
  70
    32
  0
VERTEX
  8
AM_VIS
  5
2A1
 10
6.81769
 20
4.71239
 30
0.000000
  70
    32
  0
VERTEX
  8
AM_VIS
  5
2A2
 10
6.81588
 20
4.71229
 30
0.000000
  70
    32
  0
VERTEX
  8
AM_VIS
  5
2A3
 10
6.81407
 20
4.71219
 30
0.000000
  70
    32
  0
VERTEX
  8
AM_VIS
  5
2A4
 10
6.81225
 20
4.71207
 30
0.000000
  70
    32
  0
VERTEX
  8
AM_VIS
  5
2A5
 10
6.81044
 20
4.71194
 30
0.000000
  70
    32
  0
VERTEX
  8
AM_VIS
  5
2A6
 10
6.80862
 20
4.71181
 30
0.000000
  70
    32
  0
VERTEX
  8
AM_VIS
  5
2A7
 10
6.80681
 20
4.71166
 30
0.000000
  70
    32
  0
VERTEX
  8
AM_VIS
  5
2A8
 10
6.80498
 20
4.71150
 30
0.000000
  70
    32
  0
VERTEX
  8
AM_VIS
  5
2A9
 10
6.80316
 20
4.71133
 30
0.000000
  70
    32
  0
VERTEX
  8
AM_VIS
  5
2AA
 10
6.80134
 20
4.71116
 30
0.000000
  70
    32
  0
VERTEX
  8
AM_VIS
  5
2AB
 10
6.79951
 20
4.71097
 30
0.000000
  70
    32
  0
VERTEX
  8
AM_VIS
  5
2AC
 10
6.79769
 20
4.71077
 30
0.000000
  70
    32
  0
VERTEX
  8
AM_VIS
  5
2AD
 10
6.79586
 20
4.71057
 30
0.000000
  70
    32
  0
VERTEX
  8
AM_VIS
  5
2AE
 10
6.79403
 20
4.71035
 30
0.000000
  70
    32
  0
VERTEX
  8
AM_VIS
  5
2AF
 10
6.79220
 20
4.71012
 30
0.000000
  70
    32
  0
VERTEX
  8
AM_VIS
  5
2B0
 10
6.79037
 20
4.70989
 30
0.000000
  70
    32
  0
VERTEX
  8
AM_VIS
  5
2B1
 10
6.78854
 20
4.70964
 30
0.000000
  70
    32
  0
VERTEX
  8
AM_VIS
  5
2B2
 10
6.78671
 20
4.70938
 30
0.000000
  70
    32
  0
VERTEX
  8
AM_VIS
  5
2B3
 10
6.78488
 20
4.70912
 30
0.000000
  70
    32
  0
VERTEX
  8
AM_VIS
  5
2B4
 10
6.78305
 20
4.70884
 30
0.000000
  70
    32
  0
VERTEX
  8
AM_VIS
  5
2B5
 10
6.78121
 20
4.70855
 30
0.000000
  70
    32
  0
VERTEX
  8
AM_VIS
  5
2B6
 10
6.77938
 20
4.70825
 30
0.000000
  70
    32
  0
VERTEX
  8
AM_VIS
  5
2B7
 10
6.77755
 20
4.70795
 30
0.000000
  70
    32
  0
VERTEX
  8
AM_VIS
  5
2B8
 10
6.77572
 20
4.70763
 30
0.000000
  70
    32
  0
VERTEX
  8
AM_VIS
  5
2B9
 10
6.77388
 20
4.70730
 30
0.000000
  70
    32
  0
VERTEX
  8
AM_VIS
  5
2BA
 10
6.77205
 20
4.70696
 30
0.000000
  70
    32
  0
VERTEX
  8
AM_VIS
  5
2BB
 10
6.77022
 20
4.70662
 30
0.000000
  70
    32
  0
VERTEX
  8
AM_VIS
  5
2BC
 10
6.76839
 20
4.70626
 30
0.000000
  70
    32
  0
VERTEX
  8
AM_VIS
  5
2BD
 10
6.76656
 20
4.70589
 30
0.000000
  70
    32
  0
VERTEX
  8
AM_VIS
  5
2BE
 10
6.76473
 20
4.70551
 30
0.000000
  70
    32
  0
VERTEX
  8
AM_VIS
  5
2BF
 10
6.76290
 20
4.70512
 30
0.000000
  70
    32
  0
VERTEX
  8
AM_VIS
  5
2C0
 10
6.76107
 20
4.70473
 30
0.000000
  70
    32
  0
VERTEX
  8
AM_VIS
  5
2C1
 10
6.75925
 20
4.70432
 30
0.000000
  70
    32
  0
VERTEX
  8
AM_VIS
  5
2C2
 10
6.75742
 20
4.70390
 30
0.000000
  70
    32
  0
VERTEX
  8
AM_VIS
  5
2C3
 10
6.75560
 20
4.70347
 30
0.000000
  70
    32
  0
VERTEX
  8
AM_VIS
  5
2C4
 10
6.75377
 20
4.70303
 30
0.000000
  70
    32
  0
VERTEX
  8
AM_VIS
  5
2C5
 10
6.75195
 20
4.70258
 30
0.000000
  70
    32
  0
VERTEX
  8
AM_VIS
  5
2C6
 10
6.75013
 20
4.70212
 30
0.000000
  70
    32
  0
VERTEX
  8
AM_VIS
  5
2C7
 10
6.74832
 20
4.70165
 30
0.000000
  70
    32
  0
VERTEX
  8
AM_VIS
  5
2C8
 10
6.74650
 20
4.70117
 30
0.000000
  70
    32
  0
VERTEX
  8
AM_VIS
  5
2C9
 10
6.74469
 20
4.70068
 30
0.000000
  70
    32
  0
VERTEX
  8
AM_VIS
  5
2CA
 10
6.74288
 20
4.70018
 30
0.000000
  70
    32
  0
VERTEX
  8
AM_VIS
  5
2CB
 10
6.74107
 20
4.69967
 30
0.000000
  70
    32
  0
VERTEX
  8
AM_VIS
  5
2CC
 10
6.73926
 20
4.69915
 30
0.000000
  70
    32
  0
VERTEX
  8
AM_VIS
  5
2CD
 10
6.73746
 20
4.69862
 30
0.000000
  70
    32
  0
VERTEX
  8
AM_VIS
  5
2CE
 10
6.73566
 20
4.69808
 30
0.000000
  70
    32
  0
VERTEX
  8
AM_VIS
  5
2CF
 10
6.73386
 20
4.69753
 30
0.000000
  70
    32
  0
VERTEX
  8
AM_VIS
  5
2D0
 10
6.73206
 20
4.69697
 30
0.000000
  70
    32
  0
VERTEX
  8
AM_VIS
  5
2D1
 10
6.73027
 20
4.69640
 30
0.000000
  70
    32
  0
VERTEX
  8
AM_VIS
  5
2D2
 10
6.72848
 20
4.69582
 30
0.000000
  70
    32
  0
VERTEX
  8
AM_VIS
  5
2D3
 10
6.72669
 20
4.69522
 30
0.000000
  70
    32
  0
VERTEX
  8
AM_VIS
  5
2D4
 10
6.72491
 20
4.69462
 30
0.000000
  70
    32
  0
VERTEX
  8
AM_VIS
  5
2D5
 10
6.72313
 20
4.69401
 30
0.000000
  70
    32
  0
VERTEX
  8
AM_VIS
  5
2D6
 10
6.72136
 20
4.69339
 30
0.000000
  70
    32
  0
VERTEX
  8
AM_VIS
  5
2D7
 10
6.71958
 20
4.69275
 30
0.000000
  70
    32
  0
VERTEX
  8
AM_VIS
  5
2D8
 10
6.71781
 20
4.69211
 30
0.000000
  70
    32
  0
VERTEX
  8
AM_VIS
  5
2D9
 10
6.71605
 20
4.69146
 30
0.000000
  70
    32
  0
VERTEX
  8
AM_VIS
  5
2DA
 10
6.71429
 20
4.69079
 30
0.000000
  70
    32
  0
VERTEX
  8
AM_VIS
  5
2DB
 10
6.71253
 20
4.69012
 30
0.000000
  70
    32
  0
VERTEX
  8
AM_VIS
  5
2DC
 10
6.71078
 20
4.68944
 30
0.000000
  70
    32
  0
VERTEX
  8
AM_VIS
  5
2DD
 10
6.70903
 20
4.68874
 30
0.000000
  70
    32
  0
VERTEX
  8
AM_VIS
  5
2DE
 10
6.70729
 20
4.68804
 30
0.000000
  70
    32
  0
VERTEX
  8
AM_VIS
  5
2DF
 10
6.70555
 20
4.68732
 30
0.000000
  70
    32
  0
VERTEX
  8
AM_VIS
  5
2E0
 10
6.70382
 20
4.68660
 30
0.000000
  70
    32
  0
VERTEX
  8
AM_VIS
  5
2E1
 10
6.70209
 20
4.68586
 30
0.000000
  70
    32
  0
VERTEX
  8
AM_VIS
  5
2E2
 10
6.70036
 20
4.68512
 30
0.000000
  70
    32
  0
VERTEX
  8
AM_VIS
  5
2E3
 10
6.69864
 20
4.68436
 30
0.000000
  70
    32
  0
VERTEX
  8
AM_VIS
  5
2E4
 10
6.69693
 20
4.68360
 30
0.000000
  70
    32
  0
VERTEX
  8
AM_VIS
  5
2E5
 10
6.69522
 20
4.68283
 30
0.000000
  70
    32
  0
VERTEX
  8
AM_VIS
  5
2E6
 10
6.69351
 20
4.68204
 30
0.000000
  70
    32
  0
VERTEX
  8
AM_VIS
  5
2E7
 10
6.69181
 20
4.68125
 30
0.000000
  70
    32
  0
VERTEX
  8
AM_VIS
  5
2E8
 10
6.69012
 20
4.68045
 30
0.000000
  70
    32
  0
VERTEX
  8
AM_VIS
  5
2E9
 10
6.68843
 20
4.67964
 30
0.000000
  70
    32
  0
VERTEX
  8
AM_VIS
  5
2EA
 10
6.68674
 20
4.67882
 30
0.000000
  70
    32
  0
VERTEX
  8
AM_VIS
  5
2EB
 10
6.68506
 20
4.67799
 30
0.000000
  70
    32
  0
VERTEX
  8
AM_VIS
  5
2EC
 10
6.68339
 20
4.67715
 30
0.000000
  70
    32
  0
VERTEX
  8
AM_VIS
  5
2ED
 10
6.68172
 20
4.67630
 30
0.000000
  70
    32
  0
VERTEX
  8
AM_VIS
  5
2EE
 10
6.68006
 20
4.67545
 30
0.000000
  70
    32
  0
VERTEX
  8
AM_VIS
  5
2EF
 10
6.67840
 20
4.67458
 30
0.000000
  70
    32
  0
VERTEX
  8
AM_VIS
  5
2F0
 10
6.67675
 20
4.67371
 30
0.000000
  70
    32
  0
VERTEX
  8
AM_VIS
  5
2F1
 10
6.67511
 20
4.67283
 30
0.000000
  70
    32
  0
VERTEX
  8
AM_VIS
  5
2F2
 10
6.67347
 20
4.67193
 30
0.000000
  70
    32
  0
VERTEX
  8
AM_VIS
  5
2F3
 10
6.67184
 20
4.67104
 30
0.000000
  70
    32
  0
VERTEX
  8
AM_VIS
  5
2F4
 10
6.67021
 20
4.67013
 30
0.000000
  70
    32
  0
VERTEX
  8
AM_VIS
  5
2F5
 10
6.66859
 20
4.66921
 30
0.000000
  70
    32
  0
VERTEX
  8
AM_VIS
  5
2F6
 10
6.66698
 20
4.66829
 30
0.000000
  70
    32
  0
VERTEX
  8
AM_VIS
  5
2F7
 10
6.66537
 20
4.66735
 30
0.000000
  70
    32
  0
VERTEX
  8
AM_VIS
  5
2F8
 10
6.66377
 20
4.66641
 30
0.000000
  70
    32
  0
VERTEX
  8
AM_VIS
  5
2F9
 10
6.66217
 20
4.66547
 30
0.000000
  70
    32
  0
VERTEX
  8
AM_VIS
  5
2FA
 10
6.66059
 20
4.66451
 30
0.000000
  70
    32
  0
VERTEX
  8
AM_VIS
  5
2FB
 10
6.65900
 20
4.66354
 30
0.000000
  70
    32
  0
VERTEX
  8
AM_VIS
  5
2FC
 10
6.65743
 20
4.66257
 30
0.000000
  70
    32
  0
VERTEX
  8
AM_VIS
  5
2FD
 10
6.65586
 20
4.66159
 30
0.000000
  70
    32
  0
VERTEX
  8
AM_VIS
  5
2FE
 10
6.65430
 20
4.66060
 30
0.000000
  70
    32
  0
VERTEX
  8
AM_VIS
  5
2FF
 10
6.65275
 20
4.65961
 30
0.000000
  70
    32
  0
VERTEX
  8
AM_VIS
  5
300
 10
6.65120
 20
4.65861
 30
0.000000
  70
    32
  0
VERTEX
  8
AM_VIS
  5
301
 10
6.64966
 20
4.65760
 30
0.000000
  70
    32
  0
VERTEX
  8
AM_VIS
  5
302
 10
6.64813
 20
4.65658
 30
0.000000
  70
    32
  0
VERTEX
  8
AM_VIS
  5
303
 10
6.64660
 20
4.65555
 30
0.000000
  70
    32
  0
VERTEX
  8
AM_VIS
  5
304
 10
6.64509
 20
4.65452
 30
0.000000
  70
    32
  0
VERTEX
  8
AM_VIS
  5
305
 10
6.64358
 20
4.65348
 30
0.000000
  70
    32
  0
VERTEX
  8
AM_VIS
  5
306
 10
6.64208
 20
4.65244
 30
0.000000
  70
    32
  0
VERTEX
  8
AM_VIS
  5
307
 10
6.64058
 20
4.65139
 30
0.000000
  70
    32
  0
VERTEX
  8
AM_VIS
  5
308
 10
6.63909
 20
4.65033
 30
0.000000
  70
    32
  0
VERTEX
  8
AM_VIS
  5
309
 10
6.63761
 20
4.64926
 30
0.000000
  70
    32
  0
VERTEX
  8
AM_VIS
  5
30A
 10
6.63614
 20
4.64819
 30
0.000000
  70
    32
  0
VERTEX
  8
AM_VIS
  5
30B
 10
6.63468
 20
4.64711
 30
0.000000
  70
    32
  0
VERTEX
  8
AM_VIS
  5
30C
 10
6.63322
 20
4.64602
 30
0.000000
  70
    32
  0
VERTEX
  8
AM_VIS
  5
30D
 10
6.63178
 20
4.64493
 30
0.000000
  70
    32
  0
VERTEX
  8
AM_VIS
  5
30E
 10
6.63034
 20
4.64383
 30
0.000000
  70
    32
  0
VERTEX
  8
AM_VIS
  5
30F
 10
6.62891
 20
4.64273
 30
0.000000
  70
    32
  0
VERTEX
  8
AM_VIS
  5
310
 10
6.62748
 20
4.64161
 30
0.000000
  70
    32
  0
VERTEX
  8
AM_VIS
  5
311
 10
6.62607
 20
4.64050
 30
0.000000
  70
    32
  0
VERTEX
  8
AM_VIS
  5
312
 10
6.62466
 20
4.63937
 30
0.000000
  70
    32
  0
VERTEX
  8
AM_VIS
  5
313
 10
6.62327
 20
4.63824
 30
0.000000
  70
    32
  0
VERTEX
  8
AM_VIS
  5
314
 10
6.62188
 20
4.63711
 30
0.000000
  70
    32
  0
VERTEX
  8
AM_VIS
  5
315
 10
6.62050
 20
4.63597
 30
0.000000
  70
    32
  0
VERTEX
  8
AM_VIS
  5
316
 10
6.61913
 20
4.63482
 30
0.000000
  70
    32
  0
VERTEX
  8
AM_VIS
  5
317
 10
6.61777
 20
4.63367
 30
0.000000
  70
    32
  0
VERTEX
  8
AM_VIS
  5
318
 10
6.61641
 20
4.63251
 30
0.000000
  70
    32
  0
VERTEX
  8
AM_VIS
  5
319
 10
6.61507
 20
4.63135
 30
0.000000
  70
    32
  0
VERTEX
  8
AM_VIS
  5
31A
 10
6.61373
 20
4.63018
 30
0.000000
  70
    32
  0
VERTEX
  8
AM_VIS
  5
31B
 10
6.61241
 20
4.62900
 30
0.000000
  70
    32
  0
VERTEX
  8
AM_VIS
  5
31C
 10
6.61109
 20
4.62782
 30
0.000000
  70
    32
  0
VERTEX
  8
AM_VIS
  5
31D
 10
6.60979
 20
4.62664
 30
0.000000
  70
    32
  0
VERTEX
  8
AM_VIS
  5
31E
 10
6.60849
 20
4.62545
 30
0.000000
  70
    32
  0
VERTEX
  8
AM_VIS
  5
31F
 10
6.60720
 20
4.62426
 30
0.000000
  70
    32
  0
VERTEX
  8
AM_VIS
  5
320
 10
6.60592
 20
4.62305
 30
0.000000
  70
    32
  0
VERTEX
  8
AM_VIS
  5
321
 10
6.60464
 20
4.62184
 30
0.000000
  70
    32
  0
VERTEX
  8
AM_VIS
  5
322
 10
6.60337
 20
4.62062
 30
0.000000
  70
    32
  0
VERTEX
  8
AM_VIS
  5
323
 10
6.60210
 20
4.61939
 30
0.000000
  70
    32
  0
VERTEX
  8
AM_VIS
  5
324
 10
6.60084
 20
4.61814
 30
0.000000
  70
    32
  0
VERTEX
  8
AM_VIS
  5
325
 10
6.59958
 20
4.61689
 30
0.000000
  70
    32
  0
VERTEX
  8
AM_VIS
  5
326
 10
6.59833
 20
4.61563
 30
0.000000
  70
    32
  0
VERTEX
  8
AM_VIS
  5
327
 10
6.59708
 20
4.61436
 30
0.000000
  70
    32
  0
VERTEX
  8
AM_VIS
  5
328
 10
6.59583
 20
4.61308
 30
0.000000
  70
    32
  0
VERTEX
  8
AM_VIS
  5
329
 10
6.59460
 20
4.61180
 30
0.000000
  70
    32
  0
VERTEX
  8
AM_VIS
  5
32A
 10
6.59336
 20
4.61050
 30
0.000000
  70
    32
  0
VERTEX
  8
AM_VIS
  5
32B
 10
6.59214
 20
4.60919
 30
0.000000
  70
    32
  0
VERTEX
  8
AM_VIS
  5
32C
 10
6.59092
 20
4.60788
 30
0.000000
  70
    32
  0
VERTEX
  8
AM_VIS
  5
32D
 10
6.58970
 20
4.60655
 30
0.000000
  70
    32
  0
VERTEX
  8
AM_VIS
  5
32E
 10
6.58849
 20
4.60522
 30
0.000000
  70
    32
  0
VERTEX
  8
AM_VIS
  5
32F
 10
6.58729
 20
4.60388
 30
0.000000
  70
    32
  0
VERTEX
  8
AM_VIS
  5
330
 10
6.58609
 20
4.60253
 30
0.000000
  70
    32
  0
VERTEX
  8
AM_VIS
  5
331
 10
6.58490
 20
4.60117
 30
0.000000
  70
    32
  0
VERTEX
  8
AM_VIS
  5
332
 10
6.58371
 20
4.59980
 30
0.000000
  70
    32
  0
VERTEX
  8
AM_VIS
  5
333
 10
6.58253
 20
4.59842
 30
0.000000
  70
    32
  0
VERTEX
  8
AM_VIS
  5
334
 10
6.58136
 20
4.59704
 30
0.000000
  70
    32
  0
VERTEX
  8
AM_VIS
  5
335
 10
6.58019
 20
4.59565
 30
0.000000
  70
    32
  0
VERTEX
  8
AM_VIS
  5
336
 10
6.57903
 20
4.59424
 30
0.000000
  70
    32
  0
VERTEX
  8
AM_VIS
  5
337
 10
6.57788
 20
4.59283
 30
0.000000
  70
    32
  0
VERTEX
  8
AM_VIS
  5
338
 10
6.57673
 20
4.59142
 30
0.000000
  70
    32
  0
VERTEX
  8
AM_VIS
  5
339
 10
6.57559
 20
4.58999
 30
0.000000
  70
    32
  0
VERTEX
  8
AM_VIS
  5
33A
 10
6.57445
 20
4.58856
 30
0.000000
  70
    32
  0
VERTEX
  8
AM_VIS
  5
33B
 10
6.57333
 20
4.58712
 30
0.000000
  70
    32
  0
VERTEX
  8
AM_VIS
  5
33C
 10
6.57221
 20
4.58567
 30
0.000000
  70
    32
  0
VERTEX
  8
AM_VIS
  5
33D
 10
6.57110
 20
4.58421
 30
0.000000
  70
    32
  0
VERTEX
  8
AM_VIS
  5
33E
 10
6.56999
 20
4.58274
 30
0.000000
  70
    32
  0
VERTEX
  8
AM_VIS
  5
33F
 10
6.56889
 20
4.58127
 30
0.000000
  70
    32
  0
VERTEX
  8
AM_VIS
  5
340
 10
6.56780
 20
4.57979
 30
0.000000
  70
    32
  0
VERTEX
  8
AM_VIS
  5
341
 10
6.56672
 20
4.57830
 30
0.000000
  70
    32
  0
VERTEX
  8
AM_VIS
  5
342
 10
6.56565
 20
4.57681
 30
0.000000
  70
    32
  0
VERTEX
  8
AM_VIS
  5
343
 10
6.56458
 20
4.57531
 30
0.000000
  70
    32
  0
VERTEX
  8
AM_VIS
  5
344
 10
6.56352
 20
4.57380
 30
0.000000
  70
    32
  0
VERTEX
  8
AM_VIS
  5
345
 10
6.56247
 20
4.57228
 30
0.000000
  70
    32
  0
VERTEX
  8
AM_VIS
  5
346
 10
6.56143
 20
4.57076
 30
0.000000
  70
    32
  0
VERTEX
  8
AM_VIS
  5
347
 10
6.56039
 20
4.56922
 30
0.000000
  70
    32
  0
VERTEX
  8
AM_VIS
  5
348
 10
6.55936
 20
4.56769
 30
0.000000
  70
    32
  0
VERTEX
  8
AM_VIS
  5
349
 10
6.55834
 20
4.56614
 30
0.000000
  70
    32
  0
VERTEX
  8
AM_VIS
  5
34A
 10
6.55733
 20
4.56459
 30
0.000000
  70
    32
  0
VERTEX
  8
AM_VIS
  5
34B
 10
6.55633
 20
4.56303
 30
0.000000
  70
    32
  0
VERTEX
  8
AM_VIS
  5
34C
 10
6.55534
 20
4.56147
 30
0.000000
  70
    32
  0
VERTEX
  8
AM_VIS
  5
34D
 10
6.55436
 20
4.55989
 30
0.000000
  70
    32
  0
VERTEX
  8
AM_VIS
  5
34E
 10
6.55338
 20
4.55832
 30
0.000000
  70
    32
  0
VERTEX
  8
AM_VIS
  5
34F
 10
6.55241
 20
4.55673
 30
0.000000
  70
    32
  0
VERTEX
  8
AM_VIS
  5
350
 10
6.55146
 20
4.55514
 30
0.000000
  70
    32
  0
VERTEX
  8
AM_VIS
  5
351
 10
6.55051
 20
4.55354
 30
0.000000
  70
    32
  0
VERTEX
  8
AM_VIS
  5
352
 10
6.54957
 20
4.55194
 30
0.000000
  70
    32
  0
VERTEX
  8
AM_VIS
  5
353
 10
6.54864
 20
4.55033
 30
0.000000
  70
    32
  0
VERTEX
  8
AM_VIS
  5
354
 10
6.54772
 20
4.54871
 30
0.000000
  70
    32
  0
VERTEX
  8
AM_VIS
  5
355
 10
6.54681
 20
4.54709
 30
0.000000
  70
    32
  0
VERTEX
  8
AM_VIS
  5
356
 10
6.54590
 20
4.54546
 30
0.000000
  70
    32
  0
VERTEX
  8
AM_VIS
  5
357
 10
6.54501
 20
4.54382
 30
0.000000
  70
    32
  0
VERTEX
  8
AM_VIS
  5
358
 10
6.54413
 20
4.54218
 30
0.000000
  70
    32
  0
VERTEX
  8
AM_VIS
  5
359
 10
6.54326
 20
4.54054
 30
0.000000
  70
    32
  0
VERTEX
  8
AM_VIS
  5
35A
 10
6.54239
 20
4.53889
 30
0.000000
  70
    32
  0
VERTEX
  8
AM_VIS
  5
35B
 10
6.54154
 20
4.53723
 30
0.000000
  70
    32
  0
VERTEX
  8
AM_VIS
  5
35C
 10
6.54070
 20
4.53556
 30
0.000000
  70
    32
  0
VERTEX
  8
AM_VIS
  5
35D
 10
6.53987
 20
4.53390
 30
0.000000
  70
    32
  0
VERTEX
  8
AM_VIS
  5
35E
 10
6.53905
 20
4.53222
 30
0.000000
  70
    32
  0
VERTEX
  8
AM_VIS
  5
35F
 10
6.53824
 20
4.53054
 30
0.000000
  70
    32
  0
VERTEX
  8
AM_VIS
  5
360
 10
6.53743
 20
4.52886
 30
0.000000
  70
    32
  0
VERTEX
  8
AM_VIS
  5
361
 10
6.53664
 20
4.52717
 30
0.000000
  70
    32
  0
VERTEX
  8
AM_VIS
  5
362
 10
6.53586
 20
4.52547
 30
0.000000
  70
    32
  0
VERTEX
  8
AM_VIS
  5
363
 10
6.53510
 20
4.52377
 30
0.000000
  70
    32
  0
VERTEX
  8
AM_VIS
  5
364
 10
6.53434
 20
4.52207
 30
0.000000
  70
    32
  0
VERTEX
  8
AM_VIS
  5
365
 10
6.53359
 20
4.52036
 30
0.000000
  70
    32
  0
VERTEX
  8
AM_VIS
  5
366
 10
6.53286
 20
4.51864
 30
0.000000
  70
    32
  0
VERTEX
  8
AM_VIS
  5
367
 10
6.53213
 20
4.51692
 30
0.000000
  70
    32
  0
VERTEX
  8
AM_VIS
  5
368
 10
6.53142
 20
4.51520
 30
0.000000
  70
    32
  0
VERTEX
  8
AM_VIS
  5
369
 10
6.53071
 20
4.51347
 30
0.000000
  70
    32
  0
VERTEX
  8
AM_VIS
  5
36A
 10
6.53002
 20
4.51174
 30
0.000000
  70
    32
  0
VERTEX
  8
AM_VIS
  5
36B
 10
6.52934
 20
4.51000
 30
0.000000
  70
    32
  0
VERTEX
  8
AM_VIS
  5
36C
 10
6.52867
 20
4.50826
 30
0.000000
  70
    32
  0
VERTEX
  8
AM_VIS
  5
36D
 10
6.52801
 20
4.50651
 30
0.000000
  70
    32
  0
VERTEX
  8
AM_VIS
  5
36E
 10
6.52737
 20
4.50476
 30
0.000000
  70
    32
  0
VERTEX
  8
AM_VIS
  5
36F
 10
6.52673
 20
4.50301
 30
0.000000
  70
    32
  0
VERTEX
  8
AM_VIS
  5
370
 10
6.52610
 20
4.50125
 30
0.000000
  70
    32
  0
VERTEX
  8
AM_VIS
  5
371
 10
6.52549
 20
4.49949
 30
0.000000
  70
    32
  0
VERTEX
  8
AM_VIS
  5
372
 10
6.52488
 20
4.49772
 30
0.000000
  70
    32
  0
VERTEX
  8
AM_VIS
  5
373
 10
6.52429
 20
4.49596
 30
0.000000
  70
    32
  0
VERTEX
  8
AM_VIS
  5
374
 10
6.52371
 20
4.49419
 30
0.000000
  70
    32
  0
VERTEX
  8
AM_VIS
  5
375
 10
6.52314
 20
4.49241
 30
0.000000
  70
    32
  0
VERTEX
  8
AM_VIS
  5
376
 10
6.52258
 20
4.49064
 30
0.000000
  70
    32
  0
VERTEX
  8
AM_VIS
  5
377
 10
6.52203
 20
4.48886
 30
0.000000
  70
    32
  0
VERTEX
  8
AM_VIS
  5
378
 10
6.52149
 20
4.48707
 30
0.000000
  70
    32
  0
VERTEX
  8
AM_VIS
  5
379
 10
6.52097
 20
4.48529
 30
0.000000
  70
    32
  0
VERTEX
  8
AM_VIS
  5
37A
 10
6.52045
 20
4.48350
 30
0.000000
  70
    32
  0
VERTEX
  8
AM_VIS
  5
37B
 10
6.51995
 20
4.48171
 30
0.000000
  70
    32
  0
VERTEX
  8
AM_VIS
  5
37C
 10
6.51946
 20
4.47992
 30
0.000000
  70
    32
  0
VERTEX
  8
AM_VIS
  5
37D
 10
6.51897
 20
4.47812
 30
0.000000
  70
    32
  0
VERTEX
  8
AM_VIS
  5
37E
 10
6.51850
 20
4.47633
 30
0.000000
  70
    32
  0
VERTEX
  8
AM_VIS
  5
37F
 10
6.51804
 20
4.47453
 30
0.000000
  70
    32
  0
VERTEX
  8
AM_VIS
  5
380
 10
6.51759
 20
4.47273
 30
0.000000
  70
    32
  0
VERTEX
  8
AM_VIS
  5
381
 10
6.51716
 20
4.47093
 30
0.000000
  70
    32
  0
VERTEX
  8
AM_VIS
  5
382
 10
6.51673
 20
4.46912
 30
0.000000
  70
    32
  0
VERTEX
  8
AM_VIS
  5
383
 10
6.51632
 20
4.46732
 30
0.000000
  70
    32
  0
VERTEX
  8
AM_VIS
  5
384
 10
6.51591
 20
4.46551
 30
0.000000
  70
    32
  0
VERTEX
  8
AM_VIS
  5
385
 10
6.51552
 20
4.46370
 30
0.000000
  70
    32
  0
VERTEX
  8
AM_VIS
  5
386
 10
6.51514
 20
4.46189
 30
0.000000
  70
    32
  0
VERTEX
  8
AM_VIS
  5
387
 10
6.51477
 20
4.46008
 30
0.000000
  70
    32
  0
VERTEX
  8
AM_VIS
  5
388
 10
6.51441
 20
4.45827
 30
0.000000
  70
    32
  0
VERTEX
  8
AM_VIS
  5
389
 10
6.51406
 20
4.45646
 30
0.000000
  70
    32
  0
VERTEX
  8
AM_VIS
  5
38A
 10
6.51372
 20
4.45465
 30
0.000000
  70
    32
  0
VERTEX
  8
AM_VIS
  5
38B
 10
6.51339
 20
4.45283
 30
0.000000
  70
    32
  0
VERTEX
  8
AM_VIS
  5
38C
 10
6.51308
 20
4.45102
 30
0.000000
  70
    32
  0
VERTEX
  8
AM_VIS
  5
38D
 10
6.51277
 20
4.44921
 30
0.000000
  70
    32
  0
VERTEX
  8
AM_VIS
  5
38E
 10
6.51248
 20
4.44739
 30
0.000000
  70
    32
  0
VERTEX
  8
AM_VIS
  5
38F
 10
6.51220
 20
4.44558
 30
0.000000
  70
    32
  0
VERTEX
  8
AM_VIS
  5
390
 10
6.51193
 20
4.44377
 30
0.000000
  70
    32
  0
VERTEX
  8
AM_VIS
  5
391
 10
6.51167
 20
4.44195
 30
0.000000
  70
    32
  0
VERTEX
  8
AM_VIS
  5
392
 10
6.51142
 20
4.44014
 30
0.000000
  70
    32
  0
VERTEX
  8
AM_VIS
  5
393
 10
6.51119
 20
4.43832
 30
0.000000
  70
    32
  0
VERTEX
  8
AM_VIS
  5
394
 10
6.51096
 20
4.43651
 30
0.000000
  70
    32
  0
VERTEX
  8
AM_VIS
  5
395
 10
6.51075
 20
4.43470
 30
0.000000
  70
    32
  0
VERTEX
  8
AM_VIS
  5
396
 10
6.51054
 20
4.43289
 30
0.000000
  70
    32
  0
VERTEX
  8
AM_VIS
  5
397
 10
6.51035
 20
4.43108
 30
0.000000
  70
    32
  0
VERTEX
  8
AM_VIS
  5
398
 10
6.51017
 20
4.42927
 30
0.000000
  70
    32
  0
VERTEX
  8
AM_VIS
  5
399
 10
6.51000
 20
4.42746
 30
0.000000
  70
    32
  0
VERTEX
  8
AM_VIS
  5
39A
 10
6.50985
 20
4.42565
 30
0.000000
  70
    32
  0
VERTEX
  8
AM_VIS
  5
39B
 10
6.50970
 20
4.42384
 30
0.000000
  70
    32
  0
VERTEX
  8
AM_VIS
  5
39C
 10
6.50956
 20
4.42204
 30
0.000000
  70
    32
  0
VERTEX
  8
AM_VIS
  5
39D
 10
6.50944
 20
4.42024
 30
0.000000
  70
    32
  0
VERTEX
  8
AM_VIS
  5
39E
 10
6.50933
 20
4.41843
 30
0.000000
  70
    32
  0
VERTEX
  8
AM_VIS
  5
39F
 10
6.50922
 20
4.41663
 30
0.000000
  70
    32
  0
VERTEX
  8
AM_VIS
  5
3A0
 10
6.50913
 20
4.41484
 30
0.000000
  70
    32
  0
VERTEX
  8
AM_VIS
  5
3A1
 10
6.50905
 20
4.41304
 30
0.000000
  70
    32
  0
VERTEX
  8
AM_VIS
  5
3A2
 10
6.50899
 20
4.41125
 30
0.000000
  70
    32
  0
VERTEX
  8
AM_VIS
  5
3A3
 10
6.50893
 20
4.40945
 30
0.000000
  70
    32
  0
VERTEX
  8
AM_VIS
  5
3A4
 10
6.50888
 20
4.40766
 30
0.000000
  70
    32
  0
VERTEX
  8
AM_VIS
  5
3A5
 10
6.50885
 20
4.40588
 30
0.000000
  70
    32
  0
VERTEX
  8
AM_VIS
  5
3A6
 10
6.50883
 20
4.40409
 30
0.000000
  70
    32
  0
VERTEX
  8
AM_VIS
  5
3A7
 10
6.50882
 20
4.40231
 30
0.000000
  70
    32
  0
VERTEX
  8
AM_VIS
  5
3A8
 10
6.50882
 20
4.40053
 30
0.000000
  70
    32
  0
VERTEX
  8
AM_VIS
  5
3A9
 10
6.50883
 20
4.39875
 30
0.000000
  70
    32
  0
VERTEX
  8
AM_VIS
  5
3AA
 10
6.50885
 20
4.39696
 30
0.000000
  70
    32
  0
VERTEX
  8
AM_VIS
  5
3AB
 10
6.50888
 20
4.39518
 30
0.000000
  70
    32
  0
VERTEX
  8
AM_VIS
  5
3AC
 10
6.50893
 20
4.39339
 30
0.000000
  70
    32
  0
VERTEX
  8
AM_VIS
  5
3AD
 10
6.50899
 20
4.39159
 30
0.000000
  70
    32
  0
VERTEX
  8
AM_VIS
  5
3AE
 10
6.50905
 20
4.38980
 30
0.000000
  70
    32
  0
VERTEX
  8
AM_VIS
  5
3AF
 10
6.50913
 20
4.38800
 30
0.000000
  70
    32
  0
VERTEX
  8
AM_VIS
  5
3B0
 10
6.50922
 20
4.38621
 30
0.000000
  70
    32
  0
VERTEX
  8
AM_VIS
  5
3B1
 10
6.50933
 20
4.38441
 30
0.000000
  70
    32
  0
VERTEX
  8
AM_VIS
  5
3B2
 10
6.50944
 20
4.38260
 30
0.000000
  70
    32
  0
VERTEX
  8
AM_VIS
  5
3B3
 10
6.50956
 20
4.38080
 30
0.000000
  70
    32
  0
VERTEX
  8
AM_VIS
  5
3B4
 10
6.50970
 20
4.37900
 30
0.000000
  70
    32
  0
VERTEX
  8
AM_VIS
  5
3B5
 10
6.50985
 20
4.37719
 30
0.000000
  70
    32
  0
VERTEX
  8
AM_VIS
  5
3B6
 10
6.51000
 20
4.37538
 30
0.000000
  70
    32
  0
VERTEX
  8
AM_VIS
  5
3B7
 10
6.51017
 20
4.37357
 30
0.000000
  70
    32
  0
VERTEX
  8
AM_VIS
  5
3B8
 10
6.51035
 20
4.37176
 30
0.000000
  70
    32
  0
VERTEX
  8
AM_VIS
  5
3B9
 10
6.51054
 20
4.36995
 30
0.000000
  70
    32
  0
VERTEX
  8
AM_VIS
  5
3BA
 10
6.51075
 20
4.36814
 30
0.000000
  70
    32
  0
VERTEX
  8
AM_VIS
  5
3BB
 10
6.51096
 20
4.36633
 30
0.000000
  70
    32
  0
VERTEX
  8
AM_VIS
  5
3BC
 10
6.51119
 20
4.36452
 30
0.000000
  70
    32
  0
VERTEX
  8
AM_VIS
  5
3BD
 10
6.51142
 20
4.36270
 30
0.000000
  70
    32
  0
VERTEX
  8
AM_VIS
  5
3BE
 10
6.51167
 20
4.36089
 30
0.000000
  70
    32
  0
VERTEX
  8
AM_VIS
  5
3BF
 10
6.51193
 20
4.35907
 30
0.000000
  70
    32
  0
VERTEX
  8
AM_VIS
  5
3C0
 10
6.51220
 20
4.35726
 30
0.000000
  70
    32
  0
VERTEX
  8
AM_VIS
  5
3C1
 10
6.51248
 20
4.35545
 30
0.000000
  70
    32
  0
VERTEX
  8
AM_VIS
  5
3C2
 10
6.51277
 20
4.35363
 30
0.000000
  70
    32
  0
VERTEX
  8
AM_VIS
  5
3C3
 10
6.51308
 20
4.35182
 30
0.000000
  70
    32
  0
VERTEX
  8
AM_VIS
  5
3C4
 10
6.51339
 20
4.35001
 30
0.000000
  70
    32
  0
VERTEX
  8
AM_VIS
  5
3C5
 10
6.51372
 20
4.34819
 30
0.000000
  70
    32
  0
VERTEX
  8
AM_VIS
  5
3C6
 10
6.51406
 20
4.34638
 30
0.000000
  70
    32
  0
VERTEX
  8
AM_VIS
  5
3C7
 10
6.51441
 20
4.34457
 30
0.000000
  70
    32
  0
VERTEX
  8
AM_VIS
  5
3C8
 10
6.51477
 20
4.34276
 30
0.000000
  70
    32
  0
VERTEX
  8
AM_VIS
  5
3C9
 10
6.51514
 20
4.34095
 30
0.000000
  70
    32
  0
VERTEX
  8
AM_VIS
  5
3CA
 10
6.51552
 20
4.33914
 30
0.000000
  70
    32
  0
VERTEX
  8
AM_VIS
  5
3CB
 10
6.51591
 20
4.33733
 30
0.000000
  70
    32
  0
VERTEX
  8
AM_VIS
  5
3CC
 10
6.51632
 20
4.33552
 30
0.000000
  70
    32
  0
VERTEX
  8
AM_VIS
  5
3CD
 10
6.51673
 20
4.33372
 30
0.000000
  70
    32
  0
VERTEX
  8
AM_VIS
  5
3CE
 10
6.51716
 20
4.33191
 30
0.000000
  70
    32
  0
VERTEX
  8
AM_VIS
  5
3CF
 10
6.51759
 20
4.33011
 30
0.000000
  70
    32
  0
VERTEX
  8
AM_VIS
  5
3D0
 10
6.51804
 20
4.32831
 30
0.000000
  70
    32
  0
VERTEX
  8
AM_VIS
  5
3D1
 10
6.51850
 20
4.32651
 30
0.000000
  70
    32
  0
VERTEX
  8
AM_VIS
  5
3D2
 10
6.51897
 20
4.32472
 30
0.000000
  70
    32
  0
VERTEX
  8
AM_VIS
  5
3D3
 10
6.51946
 20
4.32292
 30
0.000000
  70
    32
  0
VERTEX
  8
AM_VIS
  5
3D4
 10
6.51995
 20
4.32113
 30
0.000000
  70
    32
  0
VERTEX
  8
AM_VIS
  5
3D5
 10
6.52045
 20
4.31934
 30
0.000000
  70
    32
  0
VERTEX
  8
AM_VIS
  5
3D6
 10
6.52097
 20
4.31755
 30
0.000000
  70
    32
  0
VERTEX
  8
AM_VIS
  5
3D7
 10
6.52149
 20
4.31577
 30
0.000000
  70
    32
  0
VERTEX
  8
AM_VIS
  5
3D8
 10
6.52203
 20
4.31398
 30
0.000000
  70
    32
  0
VERTEX
  8
AM_VIS
  5
3D9
 10
6.52258
 20
4.31220
 30
0.000000
  70
    32
  0
VERTEX
  8
AM_VIS
  5
3DA
 10
6.52314
 20
4.31043
 30
0.000000
  70
    32
  0
VERTEX
  8
AM_VIS
  5
3DB
 10
6.52371
 20
4.30865
 30
0.000000
  70
    32
  0
VERTEX
  8
AM_VIS
  5
3DC
 10
6.52429
 20
4.30688
 30
0.000000
  70
    32
  0
VERTEX
  8
AM_VIS
  5
3DD
 10
6.52488
 20
4.30512
 30
0.000000
  70
    32
  0
VERTEX
  8
AM_VIS
  5
3DE
 10
6.52549
 20
4.30335
 30
0.000000
  70
    32
  0
VERTEX
  8
AM_VIS
  5
3DF
 10
6.52610
 20
4.30159
 30
0.000000
  70
    32
  0
VERTEX
  8
AM_VIS
  5
3E0
 10
6.52673
 20
4.29983
 30
0.000000
  70
    32
  0
VERTEX
  8
AM_VIS
  5
3E1
 10
6.52737
 20
4.29808
 30
0.000000
  70
    32
  0
VERTEX
  8
AM_VIS
  5
3E2
 10
6.52801
 20
4.29633
 30
0.000000
  70
    32
  0
VERTEX
  8
AM_VIS
  5
3E3
 10
6.52867
 20
4.29458
 30
0.000000
  70
    32
  0
VERTEX
  8
AM_VIS
  5
3E4
 10
6.52934
 20
4.29284
 30
0.000000
  70
    32
  0
VERTEX
  8
AM_VIS
  5
3E5
 10
6.53002
 20
4.29110
 30
0.000000
  70
    32
  0
VERTEX
  8
AM_VIS
  5
3E6
 10
6.53071
 20
4.28937
 30
0.000000
  70
    32
  0
VERTEX
  8
AM_VIS
  5
3E7
 10
6.53142
 20
4.28764
 30
0.000000
  70
    32
  0
VERTEX
  8
AM_VIS
  5
3E8
 10
6.53213
 20
4.28592
 30
0.000000
  70
    32
  0
VERTEX
  8
AM_VIS
  5
3E9
 10
6.53286
 20
4.28420
 30
0.000000
  70
    32
  0
VERTEX
  8
AM_VIS
  5
3EA
 10
6.53359
 20
4.28248
 30
0.000000
  70
    32
  0
VERTEX
  8
AM_VIS
  5
3EB
 10
6.53434
 20
4.28077
 30
0.000000
  70
    32
  0
VERTEX
  8
AM_VIS
  5
3EC
 10
6.53510
 20
4.27907
 30
0.000000
  70
    32
  0
VERTEX
  8
AM_VIS
  5
3ED
 10
6.53586
 20
4.27737
 30
0.000000
  70
    32
  0
VERTEX
  8
AM_VIS
  5
3EE
 10
6.53664
 20
4.27567
 30
0.000000
  70
    32
  0
VERTEX
  8
AM_VIS
  5
3EF
 10
6.53743
 20
4.27398
 30
0.000000
  70
    32
  0
VERTEX
  8
AM_VIS
  5
3F0
 10
6.53824
 20
4.27230
 30
0.000000
  70
    32
  0
VERTEX
  8
AM_VIS
  5
3F1
 10
6.53905
 20
4.27062
 30
0.000000
  70
    32
  0
VERTEX
  8
AM_VIS
  5
3F2
 10
6.53987
 20
4.26894
 30
0.000000
  70
    32
  0
VERTEX
  8
AM_VIS
  5
3F3
 10
6.54070
 20
4.26728
 30
0.000000
  70
    32
  0
VERTEX
  8
AM_VIS
  5
3F4
 10
6.54154
 20
4.26561
 30
0.000000
  70
    32
  0
VERTEX
  8
AM_VIS
  5
3F5
 10
6.54239
 20
4.26395
 30
0.000000
  70
    32
  0
VERTEX
  8
AM_VIS
  5
3F6
 10
6.54326
 20
4.26230
 30
0.000000
  70
    32
  0
VERTEX
  8
AM_VIS
  5
3F7
 10
6.54413
 20
4.26066
 30
0.000000
  70
    32
  0
VERTEX
  8
AM_VIS
  5
3F8
 10
6.54501
 20
4.25902
 30
0.000000
  70
    32
  0
VERTEX
  8
AM_VIS
  5
3F9
 10
6.54590
 20
4.25738
 30
0.000000
  70
    32
  0
VERTEX
  8
AM_VIS
  5
3FA
 10
6.54681
 20
4.25575
 30
0.000000
  70
    32
  0
VERTEX
  8
AM_VIS
  5
3FB
 10
6.54772
 20
4.25413
 30
0.000000
  70
    32
  0
VERTEX
  8
AM_VIS
  5
3FC
 10
6.54864
 20
4.25251
 30
0.000000
  70
    32
  0
VERTEX
  8
AM_VIS
  5
3FD
 10
6.54957
 20
4.25090
 30
0.000000
  70
    32
  0
VERTEX
  8
AM_VIS
  5
3FE
 10
6.55051
 20
4.24930
 30
0.000000
  70
    32
  0
VERTEX
  8
AM_VIS
  5
3FF
 10
6.55146
 20
4.24770
 30
0.000000
  70
    32
  0
VERTEX
  8
AM_VIS
  5
400
 10
6.55241
 20
4.24611
 30
0.000000
  70
    32
  0
VERTEX
  8
AM_VIS
  5
401
 10
6.55338
 20
4.24452
 30
0.000000
  70
    32
  0
VERTEX
  8
AM_VIS
  5
402
 10
6.55436
 20
4.24295
 30
0.000000
  70
    32
  0
VERTEX
  8
AM_VIS
  5
403
 10
6.55534
 20
4.24137
 30
0.000000
  70
    32
  0
VERTEX
  8
AM_VIS
  5
404
 10
6.55633
 20
4.23981
 30
0.000000
  70
    32
  0
VERTEX
  8
AM_VIS
  5
405
 10
6.55733
 20
4.23825
 30
0.000000
  70
    32
  0
VERTEX
  8
AM_VIS
  5
406
 10
6.55834
 20
4.23670
 30
0.000000
  70
    32
  0
VERTEX
  8
AM_VIS
  5
407
 10
6.55936
 20
4.23515
 30
0.000000
  70
    32
  0
VERTEX
  8
AM_VIS
  5
408
 10
6.56039
 20
4.23362
 30
0.000000
  70
    32
  0
VERTEX
  8
AM_VIS
  5
409
 10
6.56143
 20
4.23208
 30
0.000000
  70
    32
  0
VERTEX
  8
AM_VIS
  5
40A
 10
6.56247
 20
4.23056
 30
0.000000
  70
    32
  0
VERTEX
  8
AM_VIS
  5
40B
 10
6.56352
 20
4.22904
 30
0.000000
  70
    32
  0
VERTEX
  8
AM_VIS
  5
40C
 10
6.56458
 20
4.22753
 30
0.000000
  70
    32
  0
VERTEX
  8
AM_VIS
  5
40D
 10
6.56565
 20
4.22603
 30
0.000000
  70
    32
  0
VERTEX
  8
AM_VIS
  5
40E
 10
6.56672
 20
4.22454
 30
0.000000
  70
    32
  0
VERTEX
  8
AM_VIS
  5
40F
 10
6.56780
 20
4.22305
 30
0.000000
  70
    32
  0
VERTEX
  8
AM_VIS
  5
410
 10
6.56889
 20
4.22157
 30
0.000000
  70
    32
  0
VERTEX
  8
AM_VIS
  5
411
 10
6.56999
 20
4.22010
 30
0.000000
  70
    32
  0
VERTEX
  8
AM_VIS
  5
412
 10
6.57110
 20
4.21863
 30
0.000000
  70
    32
  0
VERTEX
  8
AM_VIS
  5
413
 10
6.57221
 20
4.21717
 30
0.000000
  70
    32
  0
VERTEX
  8
AM_VIS
  5
414
 10
6.57333
 20
4.21572
 30
0.000000
  70
    32
  0
VERTEX
  8
AM_VIS
  5
415
 10
6.57445
 20
4.21428
 30
0.000000
  70
    32
  0
VERTEX
  8
AM_VIS
  5
416
 10
6.57559
 20
4.21285
 30
0.000000
  70
    32
  0
VERTEX
  8
AM_VIS
  5
417
 10
6.57673
 20
4.21142
 30
0.000000
  70
    32
  0
VERTEX
  8
AM_VIS
  5
418
 10
6.57788
 20
4.21001
 30
0.000000
  70
    32
  0
VERTEX
  8
AM_VIS
  5
419
 10
6.57903
 20
4.20860
 30
0.000000
  70
    32
  0
VERTEX
  8
AM_VIS
  5
41A
 10
6.58019
 20
4.20719
 30
0.000000
  70
    32
  0
VERTEX
  8
AM_VIS
  5
41B
 10
6.58136
 20
4.20580
 30
0.000000
  70
    32
  0
VERTEX
  8
AM_VIS
  5
41C
 10
6.58253
 20
4.20442
 30
0.000000
  70
    32
  0
VERTEX
  8
AM_VIS
  5
41D
 10
6.58371
 20
4.20304
 30
0.000000
  70
    32
  0
VERTEX
  8
AM_VIS
  5
41E
 10
6.58490
 20
4.20167
 30
0.000000
  70
    32
  0
VERTEX
  8
AM_VIS
  5
41F
 10
6.58609
 20
4.20031
 30
0.000000
  70
    32
  0
VERTEX
  8
AM_VIS
  5
420
 10
6.58729
 20
4.19896
 30
0.000000
  70
    32
  0
VERTEX
  8
AM_VIS
  5
421
 10
6.58849
 20
4.19762
 30
0.000000
  70
    32
  0
VERTEX
  8
AM_VIS
  5
422
 10
6.58970
 20
4.19629
 30
0.000000
  70
    32
  0
VERTEX
  8
AM_VIS
  5
423
 10
6.59092
 20
4.19496
 30
0.000000
  70
    32
  0
VERTEX
  8
AM_VIS
  5
424
 10
6.59214
 20
4.19365
 30
0.000000
  70
    32
  0
VERTEX
  8
AM_VIS
  5
425
 10
6.59336
 20
4.19234
 30
0.000000
  70
    32
  0
VERTEX
  8
AM_VIS
  5
426
 10
6.59460
 20
4.19104
 30
0.000000
  70
    32
  0
VERTEX
  8
AM_VIS
  5
427
 10
6.59583
 20
4.18976
 30
0.000000
  70
    32
  0
VERTEX
  8
AM_VIS
  5
428
 10
6.59708
 20
4.18848
 30
0.000000
  70
    32
  0
VERTEX
  8
AM_VIS
  5
429
 10
6.59833
 20
4.18721
 30
0.000000
  70
    32
  0
VERTEX
  8
AM_VIS
  5
42A
 10
6.59958
 20
4.18595
 30
0.000000
  70
    32
  0
VERTEX
  8
AM_VIS
  5
42B
 10
6.60084
 20
4.18470
 30
0.000000
  70
    32
  0
VERTEX
  8
AM_VIS
  5
42C
 10
6.60210
 20
4.18345
 30
0.000000
  70
    32
  0
VERTEX
  8
AM_VIS
  5
42D
 10
6.60337
 20
4.18222
 30
0.000000
  70
    32
  0
VERTEX
  8
AM_VIS
  5
42E
 10
6.60464
 20
4.18100
 30
0.000000
  70
    32
  0
VERTEX
  8
AM_VIS
  5
42F
 10
6.60592
 20
4.17979
 30
0.000000
  70
    32
  0
VERTEX
  8
AM_VIS
  5
430
 10
6.60720
 20
4.17858
 30
0.000000
  70
    32
  0
VERTEX
  8
AM_VIS
  5
431
 10
6.60849
 20
4.17739
 30
0.000000
  70
    32
  0
VERTEX
  8
AM_VIS
  5
432
 10
6.60979
 20
4.17620
 30
0.000000
  70
    32
  0
VERTEX
  8
AM_VIS
  5
433
 10
6.61109
 20
4.17502
 30
0.000000
  70
    32
  0
VERTEX
  8
AM_VIS
  5
434
 10
6.61241
 20
4.17384
 30
0.000000
  70
    32
  0
VERTEX
  8
AM_VIS
  5
435
 10
6.61373
 20
4.17266
 30
0.000000
  70
    32
  0
VERTEX
  8
AM_VIS
  5
436
 10
6.61507
 20
4.17149
 30
0.000000
  70
    32
  0
VERTEX
  8
AM_VIS
  5
437
 10
6.61641
 20
4.17033
 30
0.000000
  70
    32
  0
VERTEX
  8
AM_VIS
  5
438
 10
6.61777
 20
4.16917
 30
0.000000
  70
    32
  0
VERTEX
  8
AM_VIS
  5
439
 10
6.61913
 20
4.16802
 30
0.000000
  70
    32
  0
VERTEX
  8
AM_VIS
  5
43A
 10
6.62050
 20
4.16687
 30
0.000000
  70
    32
  0
VERTEX
  8
AM_VIS
  5
43B
 10
6.62188
 20
4.16573
 30
0.000000
  70
    32
  0
VERTEX
  8
AM_VIS
  5
43C
 10
6.62327
 20
4.16460
 30
0.000000
  70
    32
  0
VERTEX
  8
AM_VIS
  5
43D
 10
6.62466
 20
4.16347
 30
0.000000
  70
    32
  0
VERTEX
  8
AM_VIS
  5
43E
 10
6.62607
 20
4.16234
 30
0.000000
  70
    32
  0
VERTEX
  8
AM_VIS
  5
43F
 10
6.62748
 20
4.16122
 30
0.000000
  70
    32
  0
VERTEX
  8
AM_VIS
  5
440
 10
6.62891
 20
4.16011
 30
0.000000
  70
    32
  0
VERTEX
  8
AM_VIS
  5
441
 10
6.63034
 20
4.15901
 30
0.000000
  70
    32
  0
VERTEX
  8
AM_VIS
  5
442
 10
6.63178
 20
4.15791
 30
0.000000
  70
    32
  0
VERTEX
  8
AM_VIS
  5
443
 10
6.63322
 20
4.15682
 30
0.000000
  70
    32
  0
VERTEX
  8
AM_VIS
  5
444
 10
6.63468
 20
4.15573
 30
0.000000
  70
    32
  0
VERTEX
  8
AM_VIS
  5
445
 10
6.63614
 20
4.15465
 30
0.000000
  70
    32
  0
VERTEX
  8
AM_VIS
  5
446
 10
6.63761
 20
4.15358
 30
0.000000
  70
    32
  0
VERTEX
  8
AM_VIS
  5
447
 10
6.63909
 20
4.15251
 30
0.000000
  70
    32
  0
VERTEX
  8
AM_VIS
  5
448
 10
6.64058
 20
4.15145
 30
0.000000
  70
    32
  0
VERTEX
  8
AM_VIS
  5
449
 10
6.64208
 20
4.15040
 30
0.000000
  70
    32
  0
VERTEX
  8
AM_VIS
  5
44A
 10
6.64358
 20
4.14936
 30
0.000000
  70
    32
  0
VERTEX
  8
AM_VIS
  5
44B
 10
6.64509
 20
4.14832
 30
0.000000
  70
    32
  0
VERTEX
  8
AM_VIS
  5
44C
 10
6.64660
 20
4.14729
 30
0.000000
  70
    32
  0
VERTEX
  8
AM_VIS
  5
44D
 10
6.64813
 20
4.14626
 30
0.000000
  70
    32
  0
VERTEX
  8
AM_VIS
  5
44E
 10
6.64966
 20
4.14524
 30
0.000000
  70
    32
  0
VERTEX
  8
AM_VIS
  5
44F
 10
6.65120
 20
4.14423
 30
0.000000
  70
    32
  0
VERTEX
  8
AM_VIS
  5
450
 10
6.65275
 20
4.14323
 30
0.000000
  70
    32
  0
VERTEX
  8
AM_VIS
  5
451
 10
6.65430
 20
4.14224
 30
0.000000
  70
    32
  0
VERTEX
  8
AM_VIS
  5
452
 10
6.65586
 20
4.14125
 30
0.000000
  70
    32
  0
VERTEX
  8
AM_VIS
  5
453
 10
6.65743
 20
4.14027
 30
0.000000
  70
    32
  0
VERTEX
  8
AM_VIS
  5
454
 10
6.65900
 20
4.13930
 30
0.000000
  70
    32
  0
VERTEX
  8
AM_VIS
  5
455
 10
6.66059
 20
4.13833
 30
0.000000
  70
    32
  0
VERTEX
  8
AM_VIS
  5
456
 10
6.66217
 20
4.13737
 30
0.000000
  70
    32
  0
VERTEX
  8
AM_VIS
  5
457
 10
6.66377
 20
4.13643
 30
0.000000
  70
    32
  0
VERTEX
  8
AM_VIS
  5
458
 10
6.66537
 20
4.13549
 30
0.000000
  70
    32
  0
VERTEX
  8
AM_VIS
  5
459
 10
6.66698
 20
4.13455
 30
0.000000
  70
    32
  0
VERTEX
  8
AM_VIS
  5
45A
 10
6.66859
 20
4.13363
 30
0.000000
  70
    32
  0
VERTEX
  8
AM_VIS
  5
45B
 10
6.67021
 20
4.13271
 30
0.000000
  70
    32
  0
VERTEX
  8
AM_VIS
  5
45C
 10
6.67184
 20
4.13180
 30
0.000000
  70
    32
  0
VERTEX
  8
AM_VIS
  5
45D
 10
6.67347
 20
4.13091
 30
0.000000
  70
    32
  0
VERTEX
  8
AM_VIS
  5
45E
 10
6.67511
 20
4.13001
 30
0.000000
  70
    32
  0
VERTEX
  8
AM_VIS
  5
45F
 10
6.67675
 20
4.12913
 30
0.000000
  70
    32
  0
VERTEX
  8
AM_VIS
  5
460
 10
6.67840
 20
4.12826
 30
0.000000
  70
    32
  0
VERTEX
  8
AM_VIS
  5
461
 10
6.68006
 20
4.12739
 30
0.000000
  70
    32
  0
VERTEX
  8
AM_VIS
  5
462
 10
6.68172
 20
4.12654
 30
0.000000
  70
    32
  0
VERTEX
  8
AM_VIS
  5
463
 10
6.68339
 20
4.12569
 30
0.000000
  70
    32
  0
VERTEX
  8
AM_VIS
  5
464
 10
6.68506
 20
4.12485
 30
0.000000
  70
    32
  0
VERTEX
  8
AM_VIS
  5
465
 10
6.68674
 20
4.12402
 30
0.000000
  70
    32
  0
VERTEX
  8
AM_VIS
  5
466
 10
6.68843
 20
4.12320
 30
0.000000
  70
    32
  0
VERTEX
  8
AM_VIS
  5
467
 10
6.69012
 20
4.12239
 30
0.000000
  70
    32
  0
VERTEX
  8
AM_VIS
  5
468
 10
6.69181
 20
4.12159
 30
0.000000
  70
    32
  0
VERTEX
  8
AM_VIS
  5
469
 10
6.69351
 20
4.12080
 30
0.000000
  70
    32
  0
VERTEX
  8
AM_VIS
  5
46A
 10
6.69522
 20
4.12001
 30
0.000000
  70
    32
  0
VERTEX
  8
AM_VIS
  5
46B
 10
6.69693
 20
4.11924
 30
0.000000
  70
    32
  0
VERTEX
  8
AM_VIS
  5
46C
 10
6.69864
 20
4.11848
 30
0.000000
  70
    32
  0
VERTEX
  8
AM_VIS
  5
46D
 10
6.70036
 20
4.11772
 30
0.000000
  70
    32
  0
VERTEX
  8
AM_VIS
  5
46E
 10
6.70209
 20
4.11698
 30
0.000000
  70
    32
  0
VERTEX
  8
AM_VIS
  5
46F
 10
6.70382
 20
4.11624
 30
0.000000
  70
    32
  0
VERTEX
  8
AM_VIS
  5
470
 10
6.70555
 20
4.11552
 30
0.000000
  70
    32
  0
VERTEX
  8
AM_VIS
  5
471
 10
6.70729
 20
4.11480
 30
0.000000
  70
    32
  0
VERTEX
  8
AM_VIS
  5
472
 10
6.70903
 20
4.11410
 30
0.000000
  70
    32
  0
VERTEX
  8
AM_VIS
  5
473
 10
6.71078
 20
4.11340
 30
0.000000
  70
    32
  0
VERTEX
  8
AM_VIS
  5
474
 10
6.71253
 20
4.11272
 30
0.000000
  70
    32
  0
VERTEX
  8
AM_VIS
  5
475
 10
6.71429
 20
4.11205
 30
0.000000
  70
    32
  0
VERTEX
  8
AM_VIS
  5
476
 10
6.71605
 20
4.11138
 30
0.000000
  70
    32
  0
VERTEX
  8
AM_VIS
  5
477
 10
6.71781
 20
4.11073
 30
0.000000
  70
    32
  0
VERTEX
  8
AM_VIS
  5
478
 10
6.71958
 20
4.11009
 30
0.000000
  70
    32
  0
VERTEX
  8
AM_VIS
  5
479
 10
6.72136
 20
4.10945
 30
0.000000
  70
    32
  0
VERTEX
  8
AM_VIS
  5
47A
 10
6.72313
 20
4.10883
 30
0.000000
  70
    32
  0
VERTEX
  8
AM_VIS
  5
47B
 10
6.72491
 20
4.10822
 30
0.000000
  70
    32
  0
VERTEX
  8
AM_VIS
  5
47C
 10
6.72669
 20
4.10762
 30
0.000000
  70
    32
  0
VERTEX
  8
AM_VIS
  5
47D
 10
6.72848
 20
4.10702
 30
0.000000
  70
    32
  0
VERTEX
  8
AM_VIS
  5
47E
 10
6.73027
 20
4.10644
 30
0.000000
  70
    32
  0
VERTEX
  8
AM_VIS
  5
47F
 10
6.73206
 20
4.10587
 30
0.000000
  70
    32
  0
VERTEX
  8
AM_VIS
  5
480
 10
6.73386
 20
4.10531
 30
0.000000
  70
    32
  0
VERTEX
  8
AM_VIS
  5
481
 10
6.73566
 20
4.10476
 30
0.000000
  70
    32
  0
VERTEX
  8
AM_VIS
  5
482
 10
6.73746
 20
4.10422
 30
0.000000
  70
    32
  0
VERTEX
  8
AM_VIS
  5
483
 10
6.73926
 20
4.10369
 30
0.000000
  70
    32
  0
VERTEX
  8
AM_VIS
  5
484
 10
6.74107
 20
4.10317
 30
0.000000
  70
    32
  0
VERTEX
  8
AM_VIS
  5
485
 10
6.74288
 20
4.10266
 30
0.000000
  70
    32
  0
VERTEX
  8
AM_VIS
  5
486
 10
6.74469
 20
4.10216
 30
0.000000
  70
    32
  0
VERTEX
  8
AM_VIS
  5
487
 10
6.74650
 20
4.10167
 30
0.000000
  70
    32
  0
VERTEX
  8
AM_VIS
  5
488
 10
6.74832
 20
4.10119
 30
0.000000
  70
    32
  0
VERTEX
  8
AM_VIS
  5
489
 10
6.75013
 20
4.10072
 30
0.000000
  70
    32
  0
VERTEX
  8
AM_VIS
  5
48A
 10
6.75195
 20
4.10026
 30
0.000000
  70
    32
  0
VERTEX
  8
AM_VIS
  5
48B
 10
6.75377
 20
4.09981
 30
0.000000
  70
    32
  0
VERTEX
  8
AM_VIS
  5
48C
 10
6.75560
 20
4.09937
 30
0.000000
  70
    32
  0
VERTEX
  8
AM_VIS
  5
48D
 10
6.75742
 20
4.09894
 30
0.000000
  70
    32
  0
VERTEX
  8
AM_VIS
  5
48E
 10
6.75925
 20
4.09852
 30
0.000000
  70
    32
  0
VERTEX
  8
AM_VIS
  5
48F
 10
6.76107
 20
4.09811
 30
0.000000
  70
    32
  0
VERTEX
  8
AM_VIS
  5
490
 10
6.76290
 20
4.09772
 30
0.000000
  70
    32
  0
VERTEX
  8
AM_VIS
  5
491
 10
6.76473
 20
4.09733
 30
0.000000
  70
    32
  0
VERTEX
  8
AM_VIS
  5
492
 10
6.76656
 20
4.09695
 30
0.000000
  70
    32
  0
VERTEX
  8
AM_VIS
  5
493
 10
6.76839
 20
4.09658
 30
0.000000
  70
    32
  0
VERTEX
  8
AM_VIS
  5
494
 10
6.77022
 20
4.09622
 30
0.000000
  70
    32
  0
VERTEX
  8
AM_VIS
  5
495
 10
6.77205
 20
4.09588
 30
0.000000
  70
    32
  0
VERTEX
  8
AM_VIS
  5
496
 10
6.77388
 20
4.09554
 30
0.000000
  70
    32
  0
VERTEX
  8
AM_VIS
  5
497
 10
6.77572
 20
4.09521
 30
0.000000
  70
    32
  0
VERTEX
  8
AM_VIS
  5
498
 10
6.77755
 20
4.09489
 30
0.000000
  70
    32
  0
VERTEX
  8
AM_VIS
  5
499
 10
6.77938
 20
4.09459
 30
0.000000
  70
    32
  0
VERTEX
  8
AM_VIS
  5
49A
 10
6.78121
 20
4.09429
 30
0.000000
  70
    32
  0
VERTEX
  8
AM_VIS
  5
49B
 10
6.78305
 20
4.09400
 30
0.000000
  70
    32
  0
VERTEX
  8
AM_VIS
  5
49C
 10
6.78488
 20
4.09372
 30
0.000000
  70
    32
  0
VERTEX
  8
AM_VIS
  5
49D
 10
6.78671
 20
4.09346
 30
0.000000
  70
    32
  0
VERTEX
  8
AM_VIS
  5
49E
 10
6.78854
 20
4.09320
 30
0.000000
  70
    32
  0
VERTEX
  8
AM_VIS
  5
49F
 10
6.79037
 20
4.09295
 30
0.000000
  70
    32
  0
VERTEX
  8
AM_VIS
  5
4A0
 10
6.79220
 20
4.09272
 30
0.000000
  70
    32
  0
VERTEX
  8
AM_VIS
  5
4A1
 10
6.79403
 20
4.09249
 30
0.000000
  70
    32
  0
VERTEX
  8
AM_VIS
  5
4A2
 10
6.79586
 20
4.09227
 30
0.000000
  70
    32
  0
VERTEX
  8
AM_VIS
  5
4A3
 10
6.79769
 20
4.09207
 30
0.000000
  70
    32
  0
VERTEX
  8
AM_VIS
  5
4A4
 10
6.79951
 20
4.09187
 30
0.000000
  70
    32
  0
VERTEX
  8
AM_VIS
  5
4A5
 10
6.80134
 20
4.09168
 30
0.000000
  70
    32
  0
VERTEX
  8
AM_VIS
  5
4A6
 10
6.80316
 20
4.09151
 30
0.000000
  70
    32
  0
VERTEX
  8
AM_VIS
  5
4A7
 10
6.80498
 20
4.09134
 30
0.000000
  70
    32
  0
VERTEX
  8
AM_VIS
  5
4A8
 10
6.80681
 20
4.09118
 30
0.000000
  70
    32
  0
VERTEX
  8
AM_VIS
  5
4A9
 10
6.80862
 20
4.09103
 30
0.000000
  70
    32
  0
VERTEX
  8
AM_VIS
  5
4AA
 10
6.81044
 20
4.09090
 30
0.000000
  70
    32
  0
VERTEX
  8
AM_VIS
  5
4AB
 10
6.81225
 20
4.09077
 30
0.000000
  70
    32
  0
VERTEX
  8
AM_VIS
  5
4AC
 10
6.81407
 20
4.09065
 30
0.000000
  70
    32
  0
VERTEX
  8
AM_VIS
  5
4AD
 10
6.81588
 20
4.09055
 30
0.000000
  70
    32
  0
VERTEX
  8
AM_VIS
  5
4AE
 10
6.81769
 20
4.09045
 30
0.000000
  70
    32
  0
VERTEX
  8
AM_VIS
  5
4AF
 10
6.81949
 20
4.09036
 30
0.000000
  70
    32
  0
VERTEX
  8
AM_VIS
  5
4B0
 10
6.82129
 20
4.09029
 30
0.000000
  70
    32
  0
VERTEX
  8
AM_VIS
  5
4B1
 10
6.82309
 20
4.09022
 30
0.000000
  70
    32
  0
VERTEX
  8
AM_VIS
  5
4B2
 10
6.82489
 20
4.09016
 30
0.000000
  70
    32
  0
VERTEX
  8
AM_VIS
  5
4B3
 10
6.82669
 20
4.09012
 30
0.000000
  70
    32
  0
VERTEX
  8
AM_VIS
  5
4B4
 10
6.82848
 20
4.09008
 30
0.000000
  70
    32
  0
VERTEX
  8
AM_VIS
  5
4B5
 10
6.83027
 20
4.09005
 30
0.000000
  70
    32
  0
VERTEX
  8
AM_VIS
  5
4B6
 10
6.83205
 20
4.09003
 30
0.000000
  70
    32
  0
VERTEX
  8
AM_VIS
  5
4B7
 10
6.83383
 20
4.09003
 30
0.000000
  70
    32
  0
VERTEX
  8
AM_VIS
  5
4B8
 10
6.83561
 20
4.09003
 30
0.000000
  70
    32
  0
VERTEX
  8
AM_VIS
  5
4B9
 10
6.83740
 20
4.09004
 30
0.000000
  70
    32
  0
VERTEX
  8
AM_VIS
  5
4BA
 10
6.83918
 20
4.09006
 30
0.000000
  70
    32
  0
VERTEX
  8
AM_VIS
  5
4BB
 10
6.84097
 20
4.09010
 30
0.000000
  70
    32
  0
VERTEX
  8
AM_VIS
  5
4BC
 10
6.84277
 20
4.09014
 30
0.000000
  70
    32
  0
VERTEX
  8
AM_VIS
  5
4BD
 10
6.84456
 20
4.09019
 30
0.000000
  70
    32
  0
VERTEX
  8
AM_VIS
  5
4BE
 10
6.84636
 20
4.09025
 30
0.000000
  70
    32
  0
VERTEX
  8
AM_VIS
  5
4BF
 10
6.84816
 20
4.09032
 30
0.000000
  70
    32
  0
VERTEX
  8
AM_VIS
  5
4C0
 10
6.84997
 20
4.09041
 30
0.000000
  70
    32
  0
VERTEX
  8
AM_VIS
  5
4C1
 10
6.85177
 20
4.09050
 30
0.000000
  70
    32
  0
VERTEX
  8
AM_VIS
  5
4C2
 10
6.85358
 20
4.09060
 30
0.000000
  70
    32
  0
VERTEX
  8
AM_VIS
  5
4C3
 10
6.85540
 20
4.09071
 30
0.000000
  70
    32
  0
VERTEX
  8
AM_VIS
  5
4C4
 10
6.85721
 20
4.09083
 30
0.000000
  70
    32
  0
VERTEX
  8
AM_VIS
  5
4C5
 10
6.85902
 20
4.09097
 30
0.000000
  70
    32
  0
VERTEX
  8
AM_VIS
  5
4C6
 10
6.86084
 20
4.09111
 30
0.000000
  70
    32
  0
VERTEX
  8
AM_VIS
  5
4C7
 10
6.86266
 20
4.09126
 30
0.000000
  70
    32
  0
VERTEX
  8
AM_VIS
  5
4C8
 10
6.86448
 20
4.09142
 30
0.000000
  70
    32
  0
VERTEX
  8
AM_VIS
  5
4C9
 10
6.86631
 20
4.09159
 30
0.000000
  70
    32
  0
VERTEX
  8
AM_VIS
  5
4CA
 10
6.86813
 20
4.09177
 30
0.000000
  70
    32
  0
VERTEX
  8
AM_VIS
  5
4CB
 10
6.86995
 20
4.09197
 30
0.000000
  70
    32
  0
VERTEX
  8
AM_VIS
  5
4CC
 10
6.87178
 20
4.09217
 30
0.000000
  70
    32
  0
VERTEX
  8
AM_VIS
  5
4CD
 10
6.87361
 20
4.09238
 30
0.000000
  70
    32
  0
VERTEX
  8
AM_VIS
  5
4CE
 10
6.87544
 20
4.09260
 30
0.000000
  70
    32
  0
VERTEX
  8
AM_VIS
  5
4CF
 10
6.87727
 20
4.09283
 30
0.000000
  70
    32
  0
VERTEX
  8
AM_VIS
  5
4D0
 10
6.87910
 20
4.09308
 30
0.000000
  70
    32
  0
VERTEX
  8
AM_VIS
  5
4D1
 10
6.88093
 20
4.09333
 30
0.000000
  70
    32
  0
VERTEX
  8
AM_VIS
  5
4D2
 10
6.88276
 20
4.09359
 30
0.000000
  70
    32
  0
VERTEX
  8
AM_VIS
  5
4D3
 10
6.88459
 20
4.09386
 30
0.000000
  70
    32
  0
VERTEX
  8
AM_VIS
  5
4D4
 10
6.88643
 20
4.09414
 30
0.000000
  70
    32
  0
VERTEX
  8
AM_VIS
  5
4D5
 10
6.88826
 20
4.09444
 30
0.000000
  70
    32
  0
VERTEX
  8
AM_VIS
  5
4D6
 10
6.89009
 20
4.09474
 30
0.000000
  70
    32
  0
VERTEX
  8
AM_VIS
  5
4D7
 10
6.89192
 20
4.09505
 30
0.000000
  70
    32
  0
VERTEX
  8
AM_VIS
  5
4D8
 10
6.89376
 20
4.09537
 30
0.000000
  70
    32
  0
VERTEX
  8
AM_VIS
  5
4D9
 10
6.89559
 20
4.09571
 30
0.000000
  70
    32
  0
VERTEX
  8
AM_VIS
  5
4DA
 10
6.89742
 20
4.09605
 30
0.000000
  70
    32
  0
VERTEX
  8
AM_VIS
  5
4DB
 10
6.89925
 20
4.09640
 30
0.000000
  70
    32
  0
VERTEX
  8
AM_VIS
  5
4DC
 10
6.90108
 20
4.09676
 30
0.000000
  70
    32
  0
VERTEX
  8
AM_VIS
  5
4DD
 10
6.90291
 20
4.09714
 30
0.000000
  70
    32
  0
VERTEX
  8
AM_VIS
  5
4DE
 10
6.90474
 20
4.09752
 30
0.000000
  70
    32
  0
VERTEX
  8
AM_VIS
  5
4DF
 10
6.90657
 20
4.09791
 30
0.000000
  70
    32
  0
VERTEX
  8
AM_VIS
  5
4E0
 10
6.90840
 20
4.09832
 30
0.000000
  70
    32
  0
VERTEX
  8
AM_VIS
  5
4E1
 10
6.91022
 20
4.09873
 30
0.000000
  70
    32
  0
VERTEX
  8
AM_VIS
  5
4E2
 10
6.91205
 20
4.09915
 30
0.000000
  70
    32
  0
VERTEX
  8
AM_VIS
  5
4E3
 10
6.91387
 20
4.09959
 30
0.000000
  70
    32
  0
VERTEX
  8
AM_VIS
  5
4E4
 10
6.91569
 20
4.10003
 30
0.000000
  70
    32
  0
VERTEX
  8
AM_VIS
  5
4E5
 10
6.91751
 20
4.10049
 30
0.000000
  70
    32
  0
VERTEX
  8
AM_VIS
  5
4E6
 10
6.91933
 20
4.10095
 30
0.000000
  70
    32
  0
VERTEX
  8
AM_VIS
  5
4E7
 10
6.92115
 20
4.10143
 30
0.000000
  70
    32
  0
VERTEX
  8
AM_VIS
  5
4E8
 10
6.92296
 20
4.10191
 30
0.000000
  70
    32
  0
VERTEX
  8
AM_VIS
  5
4E9
 10
6.92477
 20
4.10241
 30
0.000000
  70
    32
  0
VERTEX
  8
AM_VIS
  5
4EA
 10
6.92658
 20
4.10291
 30
0.000000
  70
    32
  0
VERTEX
  8
AM_VIS
  5
4EB
 10
6.92839
 20
4.10343
 30
0.000000
  70
    32
  0
VERTEX
  8
AM_VIS
  5
4EC
 10
6.93020
 20
4.10395
 30
0.000000
  70
    32
  0
VERTEX
  8
AM_VIS
  5
4ED
 10
6.93200
 20
4.10449
 30
0.000000
  70
    32
  0
VERTEX
  8
AM_VIS
  5
4EE
 10
6.93380
 20
4.10503
 30
0.000000
  70
    32
  0
VERTEX
  8
AM_VIS
  5
4EF
 10
6.93560
 20
4.10559
 30
0.000000
  70
    32
  0
VERTEX
  8
AM_VIS
  5
4F0
 10
6.93739
 20
4.10616
 30
0.000000
  70
    32
  0
VERTEX
  8
AM_VIS
  5
4F1
 10
6.93918
 20
4.10673
 30
0.000000
  70
    32
  0
VERTEX
  8
AM_VIS
  5
4F2
 10
6.94097
 20
4.10732
 30
0.000000
  70
    32
  0
VERTEX
  8
AM_VIS
  5
4F3
 10
6.94275
 20
4.10792
 30
0.000000
  70
    32
  0
VERTEX
  8
AM_VIS
  5
4F4
 10
6.94454
 20
4.10852
 30
0.000000
  70
    32
  0
VERTEX
  8
AM_VIS
  5
4F5
 10
6.94631
 20
4.10914
 30
0.000000
  70
    32
  0
VERTEX
  8
AM_VIS
  5
4F6
 10
6.94809
 20
4.10977
 30
0.000000
  70
    32
  0
VERTEX
  8
AM_VIS
  5
4F7
 10
6.94986
 20
4.11041
 30
0.000000
  70
    32
  0
VERTEX
  8
AM_VIS
  5
4F8
 10
6.95162
 20
4.11105
 30
0.000000
  70
    32
  0
VERTEX
  8
AM_VIS
  5
4F9
 10
6.95339
 20
4.11171
 30
0.000000
  70
    32
  0
VERTEX
  8
AM_VIS
  5
4FA
 10
6.95515
 20
4.11238
 30
0.000000
  70
    32
  0
VERTEX
  8
AM_VIS
  5
4FB
 10
6.95690
 20
4.11306
 30
0.000000
  70
    32
  0
VERTEX
  8
AM_VIS
  5
4FC
 10
6.95865
 20
4.11375
 30
0.000000
  70
    32
  0
VERTEX
  8
AM_VIS
  5
4FD
 10
6.96040
 20
4.11445
 30
0.000000
  70
    32
  0
VERTEX
  8
AM_VIS
  5
4FE
 10
6.96214
 20
4.11516
 30
0.000000
  70
    32
  0
VERTEX
  8
AM_VIS
  5
4FF
 10
6.96387
 20
4.11588
 30
0.000000
  70
    32
  0
VERTEX
  8
AM_VIS
  5
500
 10
6.96560
 20
4.11661
 30
0.000000
  70
    32
  0
VERTEX
  8
AM_VIS
  5
501
 10
6.96733
 20
4.11735
 30
0.000000
  70
    32
  0
VERTEX
  8
AM_VIS
  5
502
 10
6.96905
 20
4.11810
 30
0.000000
  70
    32
  0
VERTEX
  8
AM_VIS
  5
503
 10
6.97077
 20
4.11886
 30
0.000000
  70
    32
  0
VERTEX
  8
AM_VIS
  5
504
 10
6.97249
 20
4.11963
 30
0.000000
  70
    32
  0
VERTEX
  8
AM_VIS
  5
505
 10
6.97419
 20
4.12040
 30
0.000000
  70
    32
  0
VERTEX
  8
AM_VIS
  5
506
 10
6.97590
 20
4.12119
 30
0.000000
  70
    32
  0
VERTEX
  8
AM_VIS
  5
507
 10
6.97759
 20
4.12199
 30
0.000000
  70
    32
  0
VERTEX
  8
AM_VIS
  5
508
 10
6.97929
 20
4.12280
 30
0.000000
  70
    32
  0
VERTEX
  8
AM_VIS
  5
509
 10
6.98097
 20
4.12361
 30
0.000000
  70
    32
  0
VERTEX
  8
AM_VIS
  5
50A
 10
6.98265
 20
4.12444
 30
0.000000
  70
    32
  0
VERTEX
  8
AM_VIS
  5
50B
 10
6.98433
 20
4.12527
 30
0.000000
  70
    32
  0
VERTEX
  8
AM_VIS
  5
50C
 10
6.98600
 20
4.12611
 30
0.000000
  70
    32
  0
VERTEX
  8
AM_VIS
  5
50D
 10
6.98767
 20
4.12696
 30
0.000000
  70
    32
  0
VERTEX
  8
AM_VIS
  5
50E
 10
6.98933
 20
4.12782
 30
0.000000
  70
    32
  0
VERTEX
  8
AM_VIS
  5
50F
 10
6.99098
 20
4.12869
 30
0.000000
  70
    32
  0
VERTEX
  8
AM_VIS
  5
510
 10
6.99263
 20
4.12957
 30
0.000000
  70
    32
  0
VERTEX
  8
AM_VIS
  5
511
 10
6.99427
 20
4.13046
 30
0.000000
  70
    32
  0
VERTEX
  8
AM_VIS
  5
512
 10
6.99590
 20
4.13135
 30
0.000000
  70
    32
  0
VERTEX
  8
AM_VIS
  5
513
 10
6.99753
 20
4.13226
 30
0.000000
  70
    32
  0
VERTEX
  8
AM_VIS
  5
514
 10
6.99916
 20
4.13317
 30
0.000000
  70
    32
  0
VERTEX
  8
AM_VIS
  5
515
 10
7.00077
 20
4.13409
 30
0.000000
  70
    32
  0
VERTEX
  8
AM_VIS
  5
516
 10
7.00238
 20
4.13502
 30
0.000000
  70
    32
  0
VERTEX
  8
AM_VIS
  5
517
 10
7.00399
 20
4.13595
 30
0.000000
  70
    32
  0
VERTEX
  8
AM_VIS
  5
518
 10
7.00559
 20
4.13690
 30
0.000000
  70
    32
  0
VERTEX
  8
AM_VIS
  5
519
 10
7.00718
 20
4.13785
 30
0.000000
  70
    32
  0
VERTEX
  8
AM_VIS
  5
51A
 10
7.00876
 20
4.13881
 30
0.000000
  70
    32
  0
VERTEX
  8
AM_VIS
  5
51B
 10
7.01034
 20
4.13978
 30
0.000000
  70
    32
  0
VERTEX
  8
AM_VIS
  5
51C
 10
7.01191
 20
4.14076
 30
0.000000
  70
    32
  0
VERTEX
  8
AM_VIS
  5
51D
 10
7.01348
 20
4.14174
 30
0.000000
  70
    32
  0
VERTEX
  8
AM_VIS
  5
51E
 10
7.01503
 20
4.14273
 30
0.000000
  70
    32
  0
VERTEX
  8
AM_VIS
  5
51F
 10
7.01658
 20
4.14373
 30
0.000000
  70
    32
  0
VERTEX
  8
AM_VIS
  5
520
 10
7.01813
 20
4.14474
 30
0.000000
  70
    32
  0
VERTEX
  8
AM_VIS
  5
521
 10
7.01966
 20
4.14575
 30
0.000000
  70
    32
  0
VERTEX
  8
AM_VIS
  5
522
 10
7.02119
 20
4.14677
 30
0.000000
  70
    32
  0
VERTEX
  8
AM_VIS
  5
523
 10
7.02271
 20
4.14780
 30
0.000000
  70
    32
  0
VERTEX
  8
AM_VIS
  5
524
 10
7.02422
 20
4.14884
 30
0.000000
  70
    32
  0
VERTEX
  8
AM_VIS
  5
525
 10
7.02573
 20
4.14988
 30
0.000000
  70
    32
  0
VERTEX
  8
AM_VIS
  5
526
 10
7.02723
 20
4.15093
 30
0.000000
  70
    32
  0
VERTEX
  8
AM_VIS
  5
527
 10
7.02872
 20
4.15198
 30
0.000000
  70
    32
  0
VERTEX
  8
AM_VIS
  5
528
 10
7.03020
 20
4.15305
 30
0.000000
  70
    32
  0
VERTEX
  8
AM_VIS
  5
529
 10
7.03168
 20
4.15411
 30
0.000000
  70
    32
  0
VERTEX
  8
AM_VIS
  5
52A
 10
7.03315
 20
4.15519
 30
0.000000
  70
    32
  0
VERTEX
  8
AM_VIS
  5
52B
 10
7.03461
 20
4.15627
 30
0.000000
  70
    32
  0
VERTEX
  8
AM_VIS
  5
52C
 10
7.03606
 20
4.15736
 30
0.000000
  70
    32
  0
VERTEX
  8
AM_VIS
  5
52D
 10
7.03750
 20
4.15846
 30
0.000000
  70
    32
  0
VERTEX
  8
AM_VIS
  5
52E
 10
7.03894
 20
4.15956
 30
0.000000
  70
    32
  0
VERTEX
  8
AM_VIS
  5
52F
 10
7.04036
 20
4.16067
 30
0.000000
  70
    32
  0
VERTEX
  8
AM_VIS
  5
530
 10
7.04178
 20
4.16178
 30
0.000000
  70
    32
  0
VERTEX
  8
AM_VIS
  5
531
 10
7.04319
 20
4.16290
 30
0.000000
  70
    32
  0
VERTEX
  8
AM_VIS
  5
532
 10
7.04459
 20
4.16403
 30
0.000000
  70
    32
  0
VERTEX
  8
AM_VIS
  5
533
 10
7.04599
 20
4.16516
 30
0.000000
  70
    32
  0
VERTEX
  8
AM_VIS
  5
534
 10
7.04737
 20
4.16630
 30
0.000000
  70
    32
  0
VERTEX
  8
AM_VIS
  5
535
 10
7.04874
 20
4.16744
 30
0.000000
  70
    32
  0
VERTEX
  8
AM_VIS
  5
536
 10
7.05011
 20
4.16859
 30
0.000000
  70
    32
  0
VERTEX
  8
AM_VIS
  5
537
 10
7.05147
 20
4.16975
 30
0.000000
  70
    32
  0
VERTEX
  8
AM_VIS
  5
538
 10
7.05282
 20
4.17091
 30
0.000000
  70
    32
  0
VERTEX
  8
AM_VIS
  5
539
 10
7.05416
 20
4.17208
 30
0.000000
  70
    32
  0
VERTEX
  8
AM_VIS
  5
53A
 10
7.05549
 20
4.17325
 30
0.000000
  70
    32
  0
VERTEX
  8
AM_VIS
  5
53B
 10
7.05681
 20
4.17442
 30
0.000000
  70
    32
  0
VERTEX
  8
AM_VIS
  5
53C
 10
7.05812
 20
4.17561
 30
0.000000
  70
    32
  0
VERTEX
  8
AM_VIS
  5
53D
 10
7.05942
 20
4.17679
 30
0.000000
  70
    32
  0
VERTEX
  8
AM_VIS
  5
53E
 10
7.06071
 20
4.17799
 30
0.000000
  70
    32
  0
VERTEX
  8
AM_VIS
  5
53F
 10
7.06200
 20
4.17918
 30
0.000000
  70
    32
  0
VERTEX
  8
AM_VIS
  5
540
 10
7.06328
 20
4.18039
 30
0.000000
  70
    32
  0
VERTEX
  8
AM_VIS
  5
541
 10
7.06455
 20
4.18161
 30
0.000000
  70
    32
  0
VERTEX
  8
AM_VIS
  5
542
 10
7.06582
 20
4.18284
 30
0.000000
  70
    32
  0
VERTEX
  8
AM_VIS
  5
543
 10
7.06709
 20
4.18407
 30
0.000000
  70
    32
  0
VERTEX
  8
AM_VIS
  5
544
 10
7.06835
 20
4.18532
 30
0.000000
  70
    32
  0
VERTEX
  8
AM_VIS
  5
545
 10
7.06960
 20
4.18658
 30
0.000000
  70
    32
  0
VERTEX
  8
AM_VIS
  5
546
 10
7.07086
 20
4.18784
 30
0.000000
  70
    32
  0
VERTEX
  8
AM_VIS
  5
547
 10
7.07210
 20
4.18912
 30
0.000000
  70
    32
  0
VERTEX
  8
AM_VIS
  5
548
 10
7.07334
 20
4.19040
 30
0.000000
  70
    32
  0
VERTEX
  8
AM_VIS
  5
549
 10
7.07458
 20
4.19169
 30
0.000000
  70
    32
  0
VERTEX
  8
AM_VIS
  5
54A
 10
7.07581
 20
4.19299
 30
0.000000
  70
    32
  0
VERTEX
  8
AM_VIS
  5
54B
 10
7.07703
 20
4.19431
 30
0.000000
  70
    32
  0
VERTEX
  8
AM_VIS
  5
54C
 10
7.07825
 20
4.19563
 30
0.000000
  70
    32
  0
VERTEX
  8
AM_VIS
  5
54D
 10
7.07946
 20
4.19695
 30
0.000000
  70
    32
  0
VERTEX
  8
AM_VIS
  5
54E
 10
7.08067
 20
4.19829
 30
0.000000
  70
    32
  0
VERTEX
  8
AM_VIS
  5
54F
 10
7.08187
 20
4.19964
 30
0.000000
  70
    32
  0
VERTEX
  8
AM_VIS
  5
550
 10
7.08306
 20
4.20099
 30
0.000000
  70
    32
  0
VERTEX
  8
AM_VIS
  5
551
 10
7.08425
 20
4.20236
 30
0.000000
  70
    32
  0
VERTEX
  8
AM_VIS
  5
552
 10
7.08544
 20
4.20373
 30
0.000000
  70
    32
  0
VERTEX
  8
AM_VIS
  5
553
 10
7.08661
 20
4.20511
 30
0.000000
  70
    32
  0
VERTEX
  8
AM_VIS
  5
554
 10
7.08778
 20
4.20650
 30
0.000000
  70
    32
  0
VERTEX
  8
AM_VIS
  5
555
 10
7.08895
 20
4.20789
 30
0.000000
  70
    32
  0
VERTEX
  8
AM_VIS
  5
556
 10
7.09010
 20
4.20930
 30
0.000000
  70
    32
  0
VERTEX
  8
AM_VIS
  5
557
 10
7.09126
 20
4.21071
 30
0.000000
  70
    32
  0
VERTEX
  8
AM_VIS
  5
558
 10
7.09240
 20
4.21214
 30
0.000000
  70
    32
  0
VERTEX
  8
AM_VIS
  5
559
 10
7.09354
 20
4.21356
 30
0.000000
  70
    32
  0
VERTEX
  8
AM_VIS
  5
55A
 10
7.09467
 20
4.21500
 30
0.000000
  70
    32
  0
VERTEX
  8
AM_VIS
  5
55B
 10
7.09579
 20
4.21645
 30
0.000000
  70
    32
  0
VERTEX
  8
AM_VIS
  5
55C
 10
7.09690
 20
4.21790
 30
0.000000
  70
    32
  0
VERTEX
  8
AM_VIS
  5
55D
 10
7.09801
 20
4.21936
 30
0.000000
  70
    32
  0
VERTEX
  8
AM_VIS
  5
55E
 10
7.09911
 20
4.22083
 30
0.000000
  70
    32
  0
VERTEX
  8
AM_VIS
  5
55F
 10
7.10021
 20
4.22231
 30
0.000000
  70
    32
  0
VERTEX
  8
AM_VIS
  5
560
 10
7.10129
 20
4.22379
 30
0.000000
  70
    32
  0
VERTEX
  8
AM_VIS
  5
561
 10
7.10237
 20
4.22528
 30
0.000000
  70
    32
  0
VERTEX
  8
AM_VIS
  5
562
 10
7.10344
 20
4.22678
 30
0.000000
  70
    32
  0
VERTEX
  8
AM_VIS
  5
563
 10
7.10451
 20
4.22829
 30
0.000000
  70
    32
  0
VERTEX
  8
AM_VIS
  5
564
 10
7.10556
 20
4.22980
 30
0.000000
  70
    32
  0
VERTEX
  8
AM_VIS
  5
565
 10
7.10661
 20
4.23132
 30
0.000000
  70
    32
  0
VERTEX
  8
AM_VIS
  5
566
 10
7.10765
 20
4.23285
 30
0.000000
  70
    32
  0
VERTEX
  8
AM_VIS
  5
567
 10
7.10868
 20
4.23438
 30
0.000000
  70
    32
  0
VERTEX
  8
AM_VIS
  5
568
 10
7.10970
 20
4.23592
 30
0.000000
  70
    32
  0
VERTEX
  8
AM_VIS
  5
569
 10
7.11072
 20
4.23747
 30
0.000000
  70
    32
  0
VERTEX
  8
AM_VIS
  5
56A
 10
7.11172
 20
4.23903
 30
0.000000
  70
    32
  0
VERTEX
  8
AM_VIS
  5
56B
 10
7.11272
 20
4.24059
 30
0.000000
  70
    32
  0
VERTEX
  8
AM_VIS
  5
56C
 10
7.11371
 20
4.24216
 30
0.000000
  70
    32
  0
VERTEX
  8
AM_VIS
  5
56D
 10
7.11469
 20
4.24373
 30
0.000000
  70
    32
  0
VERTEX
  8
AM_VIS
  5
56E
 10
7.11566
 20
4.24532
 30
0.000000
  70
    32
  0
VERTEX
  8
AM_VIS
  5
56F
 10
7.11662
 20
4.24690
 30
0.000000
  70
    32
  0
VERTEX
  8
AM_VIS
  5
570
 10
7.11758
 20
4.24850
 30
0.000000
  70
    32
  0
VERTEX
  8
AM_VIS
  5
571
 10
7.11852
 20
4.25010
 30
0.000000
  70
    32
  0
VERTEX
  8
AM_VIS
  5
572
 10
7.11945
 20
4.25171
 30
0.000000
  70
    32
  0
VERTEX
  8
AM_VIS
  5
573
 10
7.12038
 20
4.25332
 30
0.000000
  70
    32
  0
VERTEX
  8
AM_VIS
  5
574
 10
7.12130
 20
4.25494
 30
0.000000
  70
    32
  0
VERTEX
  8
AM_VIS
  5
575
 10
7.12220
 20
4.25657
 30
0.000000
  70
    32
  0
VERTEX
  8
AM_VIS
  5
576
 10
7.12310
 20
4.25820
 30
0.000000
  70
    32
  0
VERTEX
  8
AM_VIS
  5
577
 10
7.12399
 20
4.25984
 30
0.000000
  70
    32
  0
VERTEX
  8
AM_VIS
  5
578
 10
7.12486
 20
4.26148
 30
0.000000
  70
    32
  0
VERTEX
  8
AM_VIS
  5
579
 10
7.12573
 20
4.26313
 30
0.000000
  70
    32
  0
VERTEX
  8
AM_VIS
  5
57A
 10
7.12659
 20
4.26478
 30
0.000000
  70
    32
  0
VERTEX
  8
AM_VIS
  5
57B
 10
7.12744
 20
4.26644
 30
0.000000
  70
    32
  0
VERTEX
  8
AM_VIS
  5
57C
 10
7.12827
 20
4.26811
 30
0.000000
  70
    32
  0
VERTEX
  8
AM_VIS
  5
57D
 10
7.12910
 20
4.26978
 30
0.000000
  70
    32
  0
VERTEX
  8
AM_VIS
  5
57E
 10
7.12992
 20
4.27146
 30
0.000000
  70
    32
  0
VERTEX
  8
AM_VIS
  5
57F
 10
7.13072
 20
4.27314
 30
0.000000
  70
    32
  0
VERTEX
  8
AM_VIS
  5
580
 10
7.13152
 20
4.27483
 30
0.000000
  70
    32
  0
VERTEX
  8
AM_VIS
  5
581
 10
7.13230
 20
4.27652
 30
0.000000
  70
    32
  0
VERTEX
  8
AM_VIS
  5
582
 10
7.13308
 20
4.27822
 30
0.000000
  70
    32
  0
VERTEX
  8
AM_VIS
  5
583
 10
7.13384
 20
4.27992
 30
0.000000
  70
    32
  0
VERTEX
  8
AM_VIS
  5
584
 10
7.13459
 20
4.28163
 30
0.000000
  70
    32
  0
VERTEX
  8
AM_VIS
  5
585
 10
7.13533
 20
4.28334
 30
0.000000
  70
    32
  0
VERTEX
  8
AM_VIS
  5
586
 10
7.13606
 20
4.28506
 30
0.000000
  70
    32
  0
VERTEX
  8
AM_VIS
  5
587
 10
7.13678
 20
4.28678
 30
0.000000
  70
    32
  0
VERTEX
  8
AM_VIS
  5
588
 10
7.13749
 20
4.28851
 30
0.000000
  70
    32
  0
VERTEX
  8
AM_VIS
  5
589
 10
7.13819
 20
4.29024
 30
0.000000
  70
    32
  0
VERTEX
  8
AM_VIS
  5
58A
 10
7.13888
 20
4.29197
 30
0.000000
  70
    32
  0
VERTEX
  8
AM_VIS
  5
58B
 10
7.13955
 20
4.29371
 30
0.000000
  70
    32
  0
VERTEX
  8
AM_VIS
  5
58C
 10
7.14021
 20
4.29546
 30
0.000000
  70
    32
  0
VERTEX
  8
AM_VIS
  5
58D
 10
7.14087
 20
4.29720
 30
0.000000
  70
    32
  0
VERTEX
  8
AM_VIS
  5
58E
 10
7.14151
 20
4.29896
 30
0.000000
  70
    32
  0
VERTEX
  8
AM_VIS
  5
58F
 10
7.14214
 20
4.30071
 30
0.000000
  70
    32
  0
VERTEX
  8
AM_VIS
  5
590
 10
7.14276
 20
4.30247
 30
0.000000
  70
    32
  0
VERTEX
  8
AM_VIS
  5
591
 10
7.14337
 20
4.30423
 30
0.000000
  70
    32
  0
VERTEX
  8
AM_VIS
  5
592
 10
7.14397
 20
4.30600
 30
0.000000
  70
    32
  0
VERTEX
  8
AM_VIS
  5
593
 10
7.14456
 20
4.30777
 30
0.000000
  70
    32
  0
VERTEX
  8
AM_VIS
  5
594
 10
7.14513
 20
4.30954
 30
0.000000
  70
    32
  0
VERTEX
  8
AM_VIS
  5
595
 10
7.14570
 20
4.31132
 30
0.000000
  70
    32
  0
VERTEX
  8
AM_VIS
  5
596
 10
7.14625
 20
4.31309
 30
0.000000
  70
    32
  0
VERTEX
  8
AM_VIS
  5
597
 10
7.14679
 20
4.31487
 30
0.000000
  70
    32
  0
VERTEX
  8
AM_VIS
  5
598
 10
7.14733
 20
4.31666
 30
0.000000
  70
    32
  0
VERTEX
  8
AM_VIS
  5
599
 10
7.14785
 20
4.31844
 30
0.000000
  70
    32
  0
VERTEX
  8
AM_VIS
  5
59A
 10
7.14836
 20
4.32023
 30
0.000000
  70
    32
  0
VERTEX
  8
AM_VIS
  5
59B
 10
7.14886
 20
4.32203
 30
0.000000
  70
    32
  0
VERTEX
  8
AM_VIS
  5
59C
 10
7.14934
 20
4.32382
 30
0.000000
  70
    32
  0
VERTEX
  8
AM_VIS
  5
59D
 10
7.14982
 20
4.32561
 30
0.000000
  70
    32
  0
VERTEX
  8
AM_VIS
  5
59E
 10
7.15028
 20
4.32741
 30
0.000000
  70
    32
  0
VERTEX
  8
AM_VIS
  5
59F
 10
7.15074
 20
4.32921
 30
0.000000
  70
    32
  0
VERTEX
  8
AM_VIS
  5
5A0
 10
7.15118
 20
4.33101
 30
0.000000
  70
    32
  0
VERTEX
  8
AM_VIS
  5
5A1
 10
7.15161
 20
4.33282
 30
0.000000
  70
    32
  0
VERTEX
  8
AM_VIS
  5
5A2
 10
7.15204
 20
4.33462
 30
0.000000
  70
    32
  0
VERTEX
  8
AM_VIS
  5
5A3
 10
7.15244
 20
4.33643
 30
0.000000
  70
    32
  0
VERTEX
  8
AM_VIS
  5
5A4
 10
7.15284
 20
4.33823
 30
0.000000
  70
    32
  0
VERTEX
  8
AM_VIS
  5
5A5
 10
7.15323
 20
4.34004
 30
0.000000
  70
    32
  0
VERTEX
  8
AM_VIS
  5
5A6
 10
7.15361
 20
4.34185
 30
0.000000
  70
    32
  0
VERTEX
  8
AM_VIS
  5
5A7
 10
7.15397
 20
4.34366
 30
0.000000
  70
    32
  0
VERTEX
  8
AM_VIS
  5
5A8
 10
7.15433
 20
4.34547
 30
0.000000
  70
    32
  0
VERTEX
  8
AM_VIS
  5
5A9
 10
7.15467
 20
4.34729
 30
0.000000
  70
    32
  0
VERTEX
  8
AM_VIS
  5
5AA
 10
7.15500
 20
4.34910
 30
0.000000
  70
    32
  0
VERTEX
  8
AM_VIS
  5
5AB
 10
7.15532
 20
4.35091
 30
0.000000
  70
    32
  0
VERTEX
  8
AM_VIS
  5
5AC
 10
7.15563
 20
4.35273
 30
0.000000
  70
    32
  0
VERTEX
  8
AM_VIS
  5
5AD
 10
7.15593
 20
4.35454
 30
0.000000
  70
    32
  0
VERTEX
  8
AM_VIS
  5
5AE
 10
7.15622
 20
4.35635
 30
0.000000
  70
    32
  0
VERTEX
  8
AM_VIS
  5
5AF
 10
7.15649
 20
4.35817
 30
0.000000
  70
    32
  0
VERTEX
  8
AM_VIS
  5
5B0
 10
7.15676
 20
4.35998
 30
0.000000
  70
    32
  0
VERTEX
  8
AM_VIS
  5
5B1
 10
7.15701
 20
4.36180
 30
0.000000
  70
    32
  0
VERTEX
  8
AM_VIS
  5
5B2
 10
7.15725
 20
4.36361
 30
0.000000
  70
    32
  0
VERTEX
  8
AM_VIS
  5
5B3
 10
7.15748
 20
4.36542
 30
0.000000
  70
    32
  0
VERTEX
  8
AM_VIS
  5
5B4
 10
7.15770
 20
4.36723
 30
0.000000
  70
    32
  0
VERTEX
  8
AM_VIS
  5
5B5
 10
7.15791
 20
4.36905
 30
0.000000
  70
    32
  0
VERTEX
  8
AM_VIS
  5
5B6
 10
7.15811
 20
4.37086
 30
0.000000
  70
    32
  0
VERTEX
  8
AM_VIS
  5
5B7
 10
7.15830
 20
4.37267
 30
0.000000
  70
    32
  0
VERTEX
  8
AM_VIS
  5
5B8
 10
7.15847
 20
4.37448
 30
0.000000
  70
    32
  0
VERTEX
  8
AM_VIS
  5
5B9
 10
7.15863
 20
4.37629
 30
0.000000
  70
    32
  0
VERTEX
  8
AM_VIS
  5
5BA
 10
7.15879
 20
4.37809
 30
0.000000
  70
    32
  0
VERTEX
  8
AM_VIS
  5
5BB
 10
7.15893
 20
4.37990
 30
0.000000
  70
    32
  0
VERTEX
  8
AM_VIS
  5
5BC
 10
7.15906
 20
4.38170
 30
0.000000
  70
    32
  0
VERTEX
  8
AM_VIS
  5
5BD
 10
7.15918
 20
4.38351
 30
0.000000
  70
    32
  0
VERTEX
  8
AM_VIS
  5
5BE
 10
7.15928
 20
4.38531
 30
0.000000
  70
    32
  0
VERTEX
  8
AM_VIS
  5
5BF
 10
7.15938
 20
4.38711
 30
0.000000
  70
    32
  0
VERTEX
  8
AM_VIS
  5
5C0
 10
7.15946
 20
4.38890
 30
0.000000
  70
    32
  0
VERTEX
  8
AM_VIS
  5
5C1
 10
7.15954
 20
4.39070
 30
0.000000
  70
    32
  0
VERTEX
  8
AM_VIS
  5
5C2
 10
7.15960
 20
4.39249
 30
0.000000
  70
    32
  0
VERTEX
  8
AM_VIS
  5
5C3
 10
7.15965
 20
4.39428
 30
0.000000
  70
    32
  0
VERTEX
  8
AM_VIS
  5
5C4
 10
7.15969
 20
4.39607
 30
0.000000
  70
    32
  0
VERTEX
  8
AM_VIS
  5
5C5
 10
7.15972
 20
4.39786
 30
0.000000
  70
    32
  0
VERTEX
  8
AM_VIS
  5
5C6
 10
7.15974
 20
4.39964
 30
0.000000
  70
    32
  0
VERTEX
  8
AM_VIS
  5
5C7
 10
7.15974
 20
4.40142
 30
0.000000
  70
    32
  0
SEQEND
  8
AM_VIS
  5
5C8
  0
LINE
  5
2B
  8
AM_VIS
 10
6.9789454053137812
 20
4.4849436257391107
 30
0.0
 11
6.9789454053137812
 21
4.317896349159505
 31
0.0
  0
LINE
  5
2C
  8
AM_VIS
 10
6.8342782201628349
 20
4.5684672640289152
 30
0.0
 11
6.9789454053137812
 21
4.4849436257391107
 31
0.0
  0
LINE
  5
2D
  8
AM_VIS
 10
6.6896110350118914
 20
4.4849436257391107
 30
0.0
 11
6.8342782201628349
 21
4.5684672640289152
 31
0.0
  0
LINE
  5
2E
  8
AM_VIS
 10
6.6896110350118914
 20
4.317896349159505
 30
0.0
 11
6.6896110350118914
 21
4.4849436257391107
 31
0.0
  0
LINE
  5
2F
  8
AM_VIS
 10
6.8342782201628349
 20
4.2343727108696996
 30
0.0
 11
6.6896110350118914
 21
4.317896349159505
 31
0.0
  0
LINE
  5
30
  8
AM_VIS
 10
6.9789454053137812
 20
4.3178963491595042
 30
0.0
 11
6.8342782201628349
 21
4.2343727108696996
 31
0.0
  0
CIRCLE
  5
31
  8
AM_VIS
 10
6.8342782201628349
 20
4.401419987449307
 30
0.0
 40
0.28125
  0
LINE
  5
32
  8
AM_VIS
 10
5.8054105172972061
 20
3.5014199874493062
 30
0.0
 11
5.7992782201628348
 21
3.5014199874493062
 31
0.0
  0
LINE
  5
33
  8
AM_VIS
 10
5.8054105172972061
 20
5.3014199874493073
 30
0.0
 11
5.7992782201628357
 21
5.3014199874493073
 31
0.0
  0
LINE
  5
34
  8
AM_VIS
 10
5.0321194301427257
 20
5.1426830181795991
 30
0.0
 11
5.7992782201628366
 21
5.3014199874493073
 31
0.0
  0
ARC
  5
35
  8
AM_VIS
 10
4.9892782201628361
 20
4.401419987449307
 30
0.0
 40
0.7424999999999999
 50
86.692276736306894
 51
273.30772326369299
  0
LINE
  5
36
  8
AM_VIS
 10
5.7992782201628348
 20
3.501419987449307
 30
0.0
 11
5.032119430142723
 21
3.660156956719014
 31
0.0
  0
CIRCLE
  5
37
  8
AM_VIS
 10
4.9217782201628362
 20
4.401419987449307
 30
0.0
 40
0.16875
  0
LINE
  5
38
  8
AM_VIS
 10
7.869278220162836
 20
5.3014199874493073
 30
0.0
 11
7.869278220162836
 21
3.501419987449307
 31
0.0
  0
LINE
  5
39
  8
AM_HID
 10
7.6892782201628371
 20
5.3014199874493073
 30
0.0
 11
7.6892782201628371
 21
3.501419987449307
 31
0.0
  0
LINE
  5
3C
  8
AM_HID
 10
5.9792782201628372
 20
5.3014199874493073
 30
0.0
 11
5.9792782201628372
 21
3.501419987449307
 31
0.0
  0
LINE
  5
13F
  8
0
 10
7.9255282201628381
 20
5.3014199874493073
 30
0.0
 11
8.7831464817129241
 21
5.3014199874493073
 31
0.0
  0
LINE
  5
140
  8
0
 10
7.9255282201628363
 20
3.501419987449307
 30
0.0
 11
8.7831464817129223
 21
3.501419987449307
 31
0.0
  0
LINE
  5
141
  8
0
 10
8.6211464817129233
 20
5.1889199874493066
 30
0.0
 11
8.6211464817129233
 21
4.7114378445921643
 31
0.0
  0
LINE
  5
142
  8
0
 10
8.6211464817129215
 20
3.6139199874493069
 30
0.0
 11
8.6211464817129233
 21
4.0914021303064496
 31
0.0
  0
SOLID
  5
143
  8
0
 10
8.6023964817129226
 20
5.1889199874493066
 30
0.0
 11
8.639896481712924
 21
5.1889199874493066
 31
0.0
 12
8.6211464817129233
 22
5.3014199874493073
 32
0.0
 13
8.6211464817129233
 23
5.3014199874493073
 33
0.0
  0
SOLID
  5
144
  8
0
 10
8.6023964817129208
 20
3.6139199874493069
 30
0.0
 11
8.6398964817129222
 21
3.6139199874493069
 31
0.0
 12
8.6211464817129215
 22
3.501419987449307
 32
0.0
 13
8.6211464817129215
 23
3.501419987449307
 33
0.0
  0
INSERT
  5
145
  8
0
  2
*U2
 10
0.0
 20
0.0
 30
0.0
  0
ENDSEC
  0
EOF
