  0
SECTION
  2
HEADER
  9
$ACADVER
  1
AC1009
  9
$INSBASE
 10
0.0
 20
0.0
 30
0.0
  9
$EXTMIN
 10
13.375720656779279
 20
1.832632702860387
 30
0.0
  9
$EXTMAX
 10
16.019158179179112
 20
5.6774327028603881
 30
0.0
  9
$LIMMIN
 10
0.0
 20
0.0
  9
$LIMMAX
 10
12.0
 20
9.0
  9
$ORTHOMODE
 70
     1
  9
$REGENMODE
 70
     0
  9
$FILLMODE
 70
     1
  9
$QTEXTMODE
 70
     0
  9
$MIRRTEXT
 70
     0
  9
$DRAGMODE
 70
     2
  9
$LTSCALE
 40
1.0
  9
$OSMODE
 70
    55
  9
$ATTMODE
 70
     1
  9
$TEXTSIZE
 40
0.2
  9
$TRACEWID
 40
0.05
  9
$TEXTSTYLE
  7
STANDARD
  9
$CLAYER
  8
0
  9
$CELTYPE
  6
BYLAYER
  9
$CECOLOR
 62
   256
  9
$DIMSCALE
 40
1.0
  9
$DIMASZ
 40
0.125
  9
$DIMEXO
 40
0.0625
  9
$DIMDLI
 40
0.38
  9
$DIMRND
 40
0.0
  9
$DIMDLE
 40
0.0
  9
$DIMEXE
 40
0.18
  9
$DIMTP
 40
0.0
  9
$DIMTM
 40
0.0
  9
$DIMTXT
 40
0.09375
  9
$DIMCEN
 40
-0.125
  9
$DIMTSZ
 40
0.0
  9
$DIMTOL
 70
     0
  9
$DIMLIM
 70
     0
  9
$DIMTIH
 70
     0
  9
$DIMTOH
 70
     0
  9
$DIMSE1
 70
     0
  9
$DIMSE2
 70
     0
  9
$DIMTAD
 70
     0
  9
$DIMZIN
 70
     3
  9
$DIMBLK
  1

  9
$DIMASO
 70
     0
  9
$DIMSHO
 70
     1
  9
$DIMPOST
  1

  9
$DIMAPOST
  1

  9
$DIMALT
 70
     0
  9
$DIMALTD
 70
     2
  9
$DIMALTF
 40
25.399999999999999
  9
$DIMLFAC
 40
1.0
  9
$DIMTOFL
 70
     1
  9
$DIMTVP
 40
0.0
  9
$DIMTIX
 70
     0
  9
$DIMSOXD
 70
     0
  9
$DIMSAH
 70
     0
  9
$DIMBLK1
  1

  9
$DIMBLK2
  1

  9
$DIMSTYLE
  2
STANDARD
  9
$DIMCLRD
 70
     0
  9
$DIMCLRE
 70
     0
  9
$DIMCLRT
 70
     0
  9
$DIMTFAC
 40
1.0
  9
$DIMGAP
 40
0.09
  9
$LUNITS
 70
     4
  9
$LUPREC
 70
     4
  9
$SKETCHINC
 40
0.1
  9
$FILLETRAD
 40
0.025
  9
$AUNITS
 70
     0
  9
$AUPREC
 70
     4
  9
$MENU
  1
.
  9
$ELEVATION
 40
0.0
  9
$PELEVATION
 40
0.0
  9
$THICKNESS
 40
0.0
  9
$LIMCHECK
 70
     0
  9
$BLIPMODE
 70
     0
  9
$CHAMFERA
 40
0.125
  9
$CHAMFERB
 40
0.5
  9
$SKPOLY
 70
     0
  9
$TDCREATE
 40
2451086.9109346061
  9
$TDUPDATE
 40
2453913.580552917
  9
$TDINDWG
 40
0.0691751852
  9
$TDUSRTIMER
 40
0.0691751852
  9
$USRTIMER
 70
     1
  9
$ANGBASE
 50
0.0
  9
$ANGDIR
 70
     0
  9
$PDMODE
 70
    34
  9
$PDSIZE
 40
3.0
  9
$PLINEWID
 40
0.0
  9
$COORDS
 70
     1
  9
$SPLFRAME
 70
     0
  9
$SPLINETYPE
 70
     6
  9
$SPLINESEGS
 70
     8
  9
$ATTDIA
 70
     0
  9
$ATTREQ
 70
     1
  9
$HANDLING
 70
     1
  9
$HANDSEED
  5
980
  9
$SURFTAB1
 70
     6
  9
$SURFTAB2
 70
     6
  9
$SURFTYPE
 70
     6
  9
$SURFU
 70
     6
  9
$SURFV
 70
     6
  9
$UCSNAME
  2

  9
$UCSORG
 10
0.0
 20
0.0
 30
0.0
  9
$UCSXDIR
 10
1.0
 20
0.0
 30
0.0
  9
$UCSYDIR
 10
0.0
 20
1.0
 30
0.0
  9
$PUCSNAME
  2

  9
$PUCSORG
 10
0.0
 20
0.0
 30
0.0
  9
$PUCSXDIR
 10
1.0
 20
0.0
 30
0.0
  9
$PUCSYDIR
 10
0.0
 20
1.0
 30
0.0
  9
$USERI1
 70
     0
  9
$USERI2
 70
     0
  9
$USERI3
 70
     0
  9
$USERI4
 70
     0
  9
$USERI5
 70
     0
  9
$USERR1
 40
0.0
  9
$USERR2
 40
0.0
  9
$USERR3
 40
0.0
  9
$USERR4
 40
0.0
  9
$USERR5
 40
0.0
  9
$WORLDVIEW
 70
     1
  9
$SHADEDGE
 70
     3
  9
$SHADEDIF
 70
    70
  9
$TILEMODE
 70
     1
  9
$MAXACTVP
 70
    48
  9
$PLIMCHECK
 70
     0
  9
$PEXTMIN
 10
14.07222128591884
 20
0.5967910317883991
 30
0.0
  9
$PEXTMAX
 10
17.2536513517936
 20
6.9228351280028662
 30
0.0
  9
$PLIMMIN
 10
-0.1579164520023376
 20
-0.2812499887361301
  9
$PLIMMAX
 10
10.84208330770177
 20
8.2187497709679782
  9
$UNITMODE
 70
     0
  9
$VISRETAIN
 70
     1
  9
$PLINEGEN
 70
     0
  9
$PSLTSCALE
 70
     1
  0
ENDSEC
  0
SECTION
  2
TABLES
  0
TABLE
  2
VPORT
 70
     2
  0
VPORT
  2
*ACTIVE
 70
     0
 10
0.0
 20
0.0
 11
1.0
 21
1.0
 12
-8.3217786930796063
 22
0.7401869201043674
 13
0.0
 23
0.0
 14
0.5
 24
0.5
 15
0.5
 25
0.5
 16
0.0
 26
0.0
 36
1.0
 17
19.138649933021721
 27
3.7598130798956322
 37
0.0
 40
9.7121148213808581
 41
2.2641129032258061
 42
50.0
 43
0.0
 44
0.0
 50
0.0
 51
0.0
 71
     0
 72
   100
 73
     1
 74
     1
 75
     0
 76
     0
 77
     0
 78
     0
  0
ENDTAB
  0
TABLE
  2
LTYPE
 70
    18
  0
LTYPE
  2
CONTINUOUS
 70
     0
  3
Solid line
 72
    65
 73
     0
 40
0.0
  0
LTYPE
  2
HIDDEN
 70
     0
  3
__ __ __ __ __ __ __ __ __ __ __ __ __ __ __ __
 72
    65
 73
     2
 40
0.375
 49
0.25
 49
-0.125
  0
LTYPE
  2
PHANTOM2
 70
     0
  3
Phantom (.5x) ___ _ _ ___ _ _ ___ _ _ ___ _ _
 72
    65
 73
     6
 40
1.25
 49
0.625
 49
-0.125
 49
0.125
 49
-0.125
 49
0.125
 49
-0.125
  0
LTYPE
  2
CENTER
 70
     0
  3
Center ____ _ ____ _ ____ _ ____ _ ____ _ ____
 72
    65
 73
     4
 40
2.0
 49
1.25
 49
-0.25
 49
0.25
 49
-0.25
  0
LTYPE
  2
ASULTYPE
 70
     0
  3
Solid line
 72
    65
 73
     2
 40
3.0
 49
2.5
 49
0.5
  0
LTYPE
  2
ASVLTYPE
 70
     0
  3
__ __ __ __ __ __ __ __ __ __ __ __ __ __ __ __ __ __ __ __ __
 72
    65
 73
     2
 40
0.75
 49
0.5
 49
-0.25
  0
LTYPE
  2
AM_ISO02W050
 70
     0
  3
__ __ __ __ __ __ __ __ __ __ __ __ __ __ __
 72
    65
 73
     2
 40
7.5
 49
6.0
 49
-1.5
  0
LTYPE
  2
AM_ISO08W050
 70
     0
  3
____ . ____ . ____ . ____ . ____ . ____ . ____
 72
    65
 73
     4
 40
18.0
 49
12.0
 49
-1.5
 49
3.0
 49
-1.5
  0
LTYPE
  2
AM_ISO09W050
 70
     0
  3
_____ . . _____ . . _____ . . ____ .. ____
 72
    65
 73
     6
 40
22.5
 49
12.0
 49
-1.5
 49
3.0
 49
-1.5
 49
3.0
 49
-1.5
  0
LTYPE
  2
AMCONSTR
 70
     0
  3
_______________________
 72
    65
 73
     2
 40
9999.0
 49
9999.0
 49
0.0
  0
LTYPE
  2
AM_ISO08W050X2
 70
     0
  3
__ . __ . __ . __ . __ . __
 72
    65
 73
     4
 40
9.0
 49
6.0
 49
-0.75
 49
1.5
 49
-0.75
  0
LTYPE
  2
AM_ISO02W050X2
 70
     0
  3
 _ _ _ _ _ _ _ _ _ _ _ _
 72
    65
 73
     2
 40
3.75
 49
3.0
 49
-0.75
  0
LTYPE
  2
AMZIGZAG
 70
     0
  3
/\/-/\/-/\/-/\/-/\/-/\/
 72
    65
 73
     2
 40
11.0001
 49
0.0001
 49
-11.0
  0
LTYPE
  2
CENTER2
 70
     0
  3
Center (.5x) ___ _ ___ _ ___ _ ___ _ ___ _ ___
 72
    65
 73
     4
 40
1.125
 49
0.75
 49
-0.125
 49
0.125
 49
-0.125
  0
LTYPE
  2
HIDDEN2
 70
     0
  3
Hidden (.5x) _ _ _ _ _ _ _ _ _ _ _ _ _ _ _ _ _
 72
    65
 73
     2
 40
0.1875
 49
0.125
 49
-0.0625
  0
LTYPE
  2
AMZIGZAG2
 70
     0
  3
/\/-/\/-/\/-/\/-/\/-/\/
 72
    65
 73
     2
 40
0.4401
 49
0.0001
 49
-0.4400000000000001
  0
LTYPE
  2
ACANSTGB
 70
     0
  3
__ . . __ . .
 72
    65
 73
     6
 40
0.35433070866
 49
0.15748031496
 49
-0.03937007874
 49
0.03937007874
 49
-0.03937007874
 49
0.03937007874
 49
-0.03937007874
  0
LTYPE
  2
ACANSTGL
 70
     0
  3
_ _ _ _ _
 72
    65
 73
     2
 40
0.11811023622
 49
0.07874015748
 49
-0.03937007874
  0
ENDTAB
  0
TABLE
  2
LAYER
 70
     4
  0
LAYER
  2
0
 70
     0
 62
     7
  6
CONTINUOUS
  0
LAYER
  2
AM_VIS
 70
     0
 62
     7
  6
CONTINUOUS
  0
LAYER
  2
AM_HID
 70
     0
 62
     7
  6
HIDDEN
  0
LAYER
  2
KEE10
 70
     0
 62
     7
  6
CONTINUOUS
  0
ENDTAB
  0
TABLE
  2
STYLE
 70
     5
  0
STYLE
  2
STANDARD
 70
     0
 40
0.0
 41
1.0
 50
0.0
 71
     0
 42
0.2
  3
txt
  4

  0
STYLE
  2

 70
     1
 40
0.0
 41
1.0
 50
0.0
 71
     0
 42
0.2
  3
ltypeshp.shx
  4

  0
STYLE
  2
ACANSTS
 70
     0
 40
1.0
 41
1.0
 50
0.0
 71
     0
 42
0.2
  3
romans.shx
  4

  0
STYLE
  2
ACANSGDT
 70
     0
 40
0.0
 41
1.0
 50
0.0
 71
     0
 42
0.2
  3
amgdtans.shx
  4

  0
STYLE
  2
ACANSTSB
 70
     0
 40
1.0
 41
1.0
 50
0.0
 71
     0
 42
0.2
  3
romans.shx
  4

  0
ENDTAB
  0
TABLE
  2
VIEW
 70
     0
  0
ENDTAB
  0
TABLE
  2
UCS
 70
     0
  0
ENDTAB
  0
TABLE
  2
APPID
 70
    13
  0
APPID
  2
ACAD
 70
     0
  0
APPID
  2
GENIUS_GENDIM_13
 70
     0
  0
APPID
  2
GENIUS_GENDTOL_13
 70
     0
  0
APPID
  2
GENIUS_GE3DTOL_13
 70
     0
  0
APPID
  2
MCAD_NO_VIS
 70
     0
  0
APPID
  2
ACAD_TEMP_GRAPHIC
 70
     0
  0
APPID
  2
AD_DRAW
 70
     0
  0
APPID
  2
ACATTRIBSERVICES
 70
     0
  0
APPID
  2
ASURF_PCURVE_APPNAME
 70
     0
  0
APPID
  2
AMG_3D2D_5_0
 70
     0
  0
APPID
  2
DESIGNERASSEMBLIES
 70
     0
  0
APPID
  2
ACADM_DIM_EDIT
 70
     0
  0
APPID
  2
AMDT_DM_ADJ
 70
     0
  0
ENDTAB
  0
TABLE
  2
DIMSTYLE
 70
     7
  0
DIMSTYLE
  2
STANDARD
 70
     0
  3

  4

  5

  6

  7

 40
1.0
 41
0.18
 42
0.0625
 43
0.38
 44
0.18
 45
0.0
 46
0.0
 47
0.0
 48
0.0
140
0.18
141
0.09
142
0.0
143
25.399999999999999
144
1.0
145
0.0
146
1.0
147
0.09
 71
     0
 72
     0
 73
     1
 74
     1
 75
     0
 76
     0
 77
     0
 78
     0
170
     0
171
     2
172
     0
173
     0
174
     0
175
     0
176
     0
177
     0
178
     0
  0
DIMSTYLE
  2
AM_ANSI
 70
     0
  3

  4
mm
  5

  6

  7

 40
1.0
 41
0.1
 42
0.05
 43
0.5
 44
0.1
 45
0.0
 46
0.0
 47
0.1
 48
0.1
140
0.12
141
0.0
142
0.0
143
25.399999999999999
144
1.0
145
0.0
146
0.71
147
0.06
 71
     0
 72
     0
 73
     1
 74
     1
 75
     0
 76
     0
 77
     0
 78
     7
170
     0
171
     2
172
     0
173
     0
174
     0
175
     0
176
   256
177
   256
178
     2
  0
DIMSTYLE
  2
AM_ANSI$3
 70
     0
  3

  4
mm
  5

  6

  7

 40
1.0
 41
0.1
 42
0.05
 43
0.5
 44
0.1
 45
0.0
 46
0.0
 47
0.1
 48
0.1
140
0.12
141
0.0
142
0.0
143
25.399999999999999
144
1.0
145
0.0
146
0.71
147
0.06
 71
     0
 72
     0
 73
     1
 74
     1
 75
     0
 76
     0
 77
     0
 78
     7
170
     0
171
     2
172
     0
173
     0
174
     0
175
     0
176
   256
177
   256
178
     2
  0
DIMSTYLE
  2
AM_ANSI$4
 70
     0
  3

  4
mm
  5

  6

  7

 40
1.0
 41
0.1
 42
0.05
 43
0.5
 44
0.1
 45
0.0
 46
0.0
 47
0.1
 48
0.1
140
0.12
141
0.0
142
0.0
143
25.399999999999999
144
1.0
145
0.0
146
0.71
147
0.06
 71
     0
 72
     0
 73
     1
 74
     1
 75
     0
 76
     0
 77
     0
 78
     7
170
     0
171
     2
172
     0
173
     0
174
     0
175
     0
176
   256
177
   256
178
     2
  0
DIMSTYLE
  2
AM_ANSI$7
 70
     0
  3

  4
mm
  5

  6

  7

 40
1.0
 41
0.1
 42
0.05
 43
0.5
 44
0.1
 45
0.0
 46
0.0
 47
0.1
 48
0.1
140
0.24
141
0.0
142
0.0
143
25.399999999999999
144
1.0
145
0.0
146
0.71
147
0.06
 71
     0
 72
     0
 73
     1
 74
     1
 75
     0
 76
     0
 77
     0
 78
     7
170
     0
171
     2
172
     0
173
     0
174
     0
175
     0
176
   256
177
   256
178
     2
  0
DIMSTYLE
  2
AM_ANSI$SF
 70
     0
  3

  4
mm
  5

  6

  7

 40
1.0
 41
0.1
 42
0.05
 43
0.5
 44
0.1
 45
0.0
 46
0.0
 47
0.1
 48
0.1
140
0.12
141
0.0
142
0.0
143
25.399999999999999
144
1.0
145
0.0
146
0.71
147
0.06
 71
     0
 72
     0
 73
     1
 74
     1
 75
     1
 76
     1
 77
     0
 78
     7
170
     0
171
     2
172
     0
173
     0
174
     0
175
     0
176
   256
177
   256
178
     2
  0
DIMSTYLE
  2
AM_ANSI$SH
 70
     0
  3

  4
mm
  5

  6
GENAXEH
  7

 40
1.0
 41
0.1
 42
0.05
 43
0.5
 44
0.1
 45
0.0
 46
0.0
 47
0.1
 48
0.1
140
0.12
141
0.0
142
0.0
143
25.399999999999999
144
1.0
145
0.0
146
0.71
147
0.06
 71
     0
 72
     0
 73
     1
 74
     1
 75
     1
 76
     1
 77
     0
 78
     7
170
     0
171
     2
172
     0
173
     1
174
     0
175
     0
176
   256
177
   256
178
     2
  0
ENDTAB
  0
ENDSEC
  0
SECTION
  2
BLOCKS
  0
BLOCK
  8
0
  2
$MODEL_SPACE
 70
     0
 10
0.0
 20
0.0
 30
0.0
  3
$MODEL_SPACE
  1

  0
ENDBLK
  5
A
  8
0
  0
BLOCK
 67
     1
  8
0
  2
$PAPER_SPACE
 70
     0
 10
0.0
 20
0.0
 30
0.0
  3
$PAPER_SPACE
  1

  0
ENDBLK
  5
F
 67
     1
  8
0
  0
BLOCK
  8
0
  2
*U0
 70
     1
 10
0.0
 20
0.0
 30
0.0
  3
*U0
  1

  0
ENDBLK
  5
117
  8
0
  0
BLOCK
  8
0
  2
GENAXEH
 70
     0
 10
0.0
 20
0.0
 30
0.0
  3
GENAXEH
  1

  0
LINE
  5
155
  8
0
 10
-1.0
 20
0.0
 30
0.0
 11
1.0
 21
0.0
 31
0.0
  0
ENDBLK
  5
157
  8
0
  0
BLOCK
  8
0
  2
_DOT
 70
     0
 10
0.0
 20
0.0
 30
0.0
  3
_DOT
  1

  0
POLYLINE
  5
15E
  8
0
  6
BYBLOCK
 62
     0
 66
     1
 10
0.0
 20
0.0
 30
0.0
 70
     1
 40
0.5
 41
0.5
  0
VERTEX
  5
15F
  8
0
  6
BYBLOCK
 62
     0
 10
-0.25
 20
0.0
 30
0.0
 42
1.0
  0
VERTEX
  5
160
  8
0
  6
BYBLOCK
 62
     0
 10
0.25
 20
0.0
 30
0.0
 42
1.0
  0
SEQEND
  5
161
  8
0
  6
BYBLOCK
 62
     0
  0
LINE
  5
162
  8
0
  6
BYBLOCK
 62
     0
 10
-0.5
 20
0.0
 30
0.0
 11
-1.0
 21
0.0
 31
0.0
  0
ENDBLK
  5
164
  8
0
  0
BLOCK
  8
0
  2
2D
 70
     0
 10
0.0
 20
0.0
 30
0.0
  3
2D
  1

  0
INSERT
  5
168
  8
0
  2
*U4
 10
0.0
 20
0.0
 30
0.0
  0
INSERT
  5
169
  8
0
  2
*U5
 10
0.0
 20
0.0
 30
0.0
  0
INSERT
  5
16A
  8
0
  2
*U6
 10
0.0
 20
0.0
 30
0.0
  0
ENDBLK
  5
16C
  8
0
  0
BLOCK
  8
0
  2
*U4
 70
     1
 10
0.0
 20
0.0
 30
0.0
  3
*U4
  1

  0
TEXT
  5
1E1
  8
KEE10
 10
-0.167740653382606
 20
0.7944046258072062
 30
0.0
 40
0.140625
  1
KEE
  0
ENDBLK
  5
1E3
  8
0
  0
BLOCK
  8
0
  2
*U5
 70
     1
 10
0.0
 20
0.0
 30
0.0
  3
*U5
  1

  0
TEXT
  5
1E5
  8
KEE10
 10
-0.308365653382606
 20
0.4858688129746218
 30
0.0
 40
0.140625
  1
KLAMP
  0
ENDBLK
  5
1E7
  8
0
  0
BLOCK
  8
0
  2
*U6
 70
     1
 10
0.0
 20
0.0
 30
0.0
  3
*U6
  1

  0
TEXT
  5
1E9
  8
KEE10
 10
-0.202896903382606
 20
0.2018753139112972
 30
0.0
 40
0.140625
  1
10-8
  0
ENDBLK
  5
1EB
  8
0
  0
BLOCK
  8
0
  2
*U7
 70
     1
 10
0.0
 20
0.0
 30
0.0
  3
*U7
  1

  0
TEXT
  5
1ED
  8
KEE10
 10
14.90933895756422
 20
5.3618660982881092
 30
0.0
 40
0.10125
  1
KEE
  0
ENDBLK
  5
1EF
  8
0
  0
BLOCK
  8
0
  2
*U8
 70
     1
 10
0.0
 20
0.0
 30
0.0
  3
*U8
  1

  0
TEXT
  5
1F1
  8
KEE10
 10
14.80808895756422
 20
5.139720313048648
 30
0.0
 40
0.10125
  1
KLAMP
  0
ENDBLK
  5
1F3
  8
0
  0
BLOCK
  8
0
  2
*U9
 70
     1
 10
0.0
 20
0.0
 30
0.0
  3
*U9
  1

  0
TEXT
  5
1F5
  8
0
 10
13.53907065677928
 20
3.5750327028603892
 30
0.0
 40
0.0675
  1
3-5/8"
 50
90.0
  0
ENDBLK
  5
1F7
  8
0
  0
ENDSEC
  0
SECTION
  2
ENTITIES
  0
POLYLINE
  8
AM_VIS
  5
1F8
  66
     1
 10
0.000000
 20
0.000000
 30
0.000000
  70
     8
  0
VERTEX
  8
AM_VIS
  5
1F9
 10
15.8842
 20
4.05869
 30
0.000000
  70
    32
  0
VERTEX
  8
AM_VIS
  5
1FA
 10
15.8842
 20
4.05869
 30
0.000000
  70
    32
  0
VERTEX
  8
AM_VIS
  5
1FB
 10
15.8842
 20
4.05869
 30
0.000000
  70
    32
  0
VERTEX
  8
AM_VIS
  5
1FC
 10
15.8842
 20
4.05869
 30
0.000000
  70
    32
  0
VERTEX
  8
AM_VIS
  5
1FD
 10
15.8842
 20
4.05869
 30
0.000000
  70
    32
  0
VERTEX
  8
AM_VIS
  5
1FE
 10
15.8842
 20
4.05869
 30
0.000000
  70
    32
  0
VERTEX
  8
AM_VIS
  5
1FF
 10
15.8842
 20
4.05869
 30
0.000000
  70
    32
  0
VERTEX
  8
AM_VIS
  5
200
 10
15.8842
 20
4.05869
 30
0.000000
  70
    32
  0
VERTEX
  8
AM_VIS
  5
201
 10
15.8842
 20
4.05868
 30
0.000000
  70
    32
  0
VERTEX
  8
AM_VIS
  5
202
 10
15.8842
 20
4.05868
 30
0.000000
  70
    32
  0
VERTEX
  8
AM_VIS
  5
203
 10
15.8841
 20
4.05868
 30
0.000000
  70
    32
  0
VERTEX
  8
AM_VIS
  5
204
 10
15.8841
 20
4.05868
 30
0.000000
  70
    32
  0
VERTEX
  8
AM_VIS
  5
205
 10
15.8841
 20
4.05867
 30
0.000000
  70
    32
  0
VERTEX
  8
AM_VIS
  5
206
 10
15.8841
 20
4.05867
 30
0.000000
  70
    32
  0
VERTEX
  8
AM_VIS
  5
207
 10
15.8841
 20
4.05866
 30
0.000000
  70
    32
  0
VERTEX
  8
AM_VIS
  5
208
 10
15.8841
 20
4.05866
 30
0.000000
  70
    32
  0
VERTEX
  8
AM_VIS
  5
209
 10
15.8841
 20
4.05866
 30
0.000000
  70
    32
  0
VERTEX
  8
AM_VIS
  5
20A
 10
15.8841
 20
4.05865
 30
0.000000
  70
    32
  0
VERTEX
  8
AM_VIS
  5
20B
 10
15.8841
 20
4.05865
 30
0.000000
  70
    32
  0
VERTEX
  8
AM_VIS
  5
20C
 10
15.8841
 20
4.05864
 30
0.000000
  70
    32
  0
VERTEX
  8
AM_VIS
  5
20D
 10
15.8841
 20
4.05863
 30
0.000000
  70
    32
  0
VERTEX
  8
AM_VIS
  5
20E
 10
15.8841
 20
4.05863
 30
0.000000
  70
    32
  0
VERTEX
  8
AM_VIS
  5
20F
 10
15.8841
 20
4.05862
 30
0.000000
  70
    32
  0
VERTEX
  8
AM_VIS
  5
210
 10
15.8841
 20
4.05861
 30
0.000000
  70
    32
  0
VERTEX
  8
AM_VIS
  5
211
 10
15.8841
 20
4.05861
 30
0.000000
  70
    32
  0
VERTEX
  8
AM_VIS
  5
212
 10
15.8841
 20
4.05860
 30
0.000000
  70
    32
  0
VERTEX
  8
AM_VIS
  5
213
 10
15.8841
 20
4.05859
 30
0.000000
  70
    32
  0
VERTEX
  8
AM_VIS
  5
214
 10
15.8841
 20
4.05858
 30
0.000000
  70
    32
  0
VERTEX
  8
AM_VIS
  5
215
 10
15.8841
 20
4.05858
 30
0.000000
  70
    32
  0
VERTEX
  8
AM_VIS
  5
216
 10
15.8841
 20
4.05857
 30
0.000000
  70
    32
  0
VERTEX
  8
AM_VIS
  5
217
 10
15.8841
 20
4.05856
 30
0.000000
  70
    32
  0
VERTEX
  8
AM_VIS
  5
218
 10
15.8841
 20
4.05855
 30
0.000000
  70
    32
  0
VERTEX
  8
AM_VIS
  5
219
 10
15.8841
 20
4.05854
 30
0.000000
  70
    32
  0
VERTEX
  8
AM_VIS
  5
21A
 10
15.8841
 20
4.05853
 30
0.000000
  70
    32
  0
VERTEX
  8
AM_VIS
  5
21B
 10
15.8841
 20
4.05852
 30
0.000000
  70
    32
  0
VERTEX
  8
AM_VIS
  5
21C
 10
15.8840
 20
4.05851
 30
0.000000
  70
    32
  0
VERTEX
  8
AM_VIS
  5
21D
 10
15.8840
 20
4.05850
 30
0.000000
  70
    32
  0
VERTEX
  8
AM_VIS
  5
21E
 10
15.8840
 20
4.05849
 30
0.000000
  70
    32
  0
VERTEX
  8
AM_VIS
  5
21F
 10
15.8840
 20
4.05848
 30
0.000000
  70
    32
  0
VERTEX
  8
AM_VIS
  5
220
 10
15.8840
 20
4.05847
 30
0.000000
  70
    32
  0
VERTEX
  8
AM_VIS
  5
221
 10
15.8840
 20
4.05846
 30
0.000000
  70
    32
  0
VERTEX
  8
AM_VIS
  5
222
 10
15.8840
 20
4.05844
 30
0.000000
  70
    32
  0
VERTEX
  8
AM_VIS
  5
223
 10
15.8840
 20
4.05843
 30
0.000000
  70
    32
  0
VERTEX
  8
AM_VIS
  5
224
 10
15.8840
 20
4.05842
 30
0.000000
  70
    32
  0
VERTEX
  8
AM_VIS
  5
225
 10
15.8840
 20
4.05840
 30
0.000000
  70
    32
  0
VERTEX
  8
AM_VIS
  5
226
 10
15.8840
 20
4.05839
 30
0.000000
  70
    32
  0
VERTEX
  8
AM_VIS
  5
227
 10
15.8840
 20
4.05838
 30
0.000000
  70
    32
  0
VERTEX
  8
AM_VIS
  5
228
 10
15.8840
 20
4.05836
 30
0.000000
  70
    32
  0
VERTEX
  8
AM_VIS
  5
229
 10
15.8839
 20
4.05835
 30
0.000000
  70
    32
  0
VERTEX
  8
AM_VIS
  5
22A
 10
15.8839
 20
4.05834
 30
0.000000
  70
    32
  0
VERTEX
  8
AM_VIS
  5
22B
 10
15.8839
 20
4.05832
 30
0.000000
  70
    32
  0
VERTEX
  8
AM_VIS
  5
22C
 10
15.8839
 20
4.05831
 30
0.000000
  70
    32
  0
VERTEX
  8
AM_VIS
  5
22D
 10
15.8839
 20
4.05829
 30
0.000000
  70
    32
  0
VERTEX
  8
AM_VIS
  5
22E
 10
15.8839
 20
4.05828
 30
0.000000
  70
    32
  0
VERTEX
  8
AM_VIS
  5
22F
 10
15.8839
 20
4.05826
 30
0.000000
  70
    32
  0
VERTEX
  8
AM_VIS
  5
230
 10
15.8839
 20
4.05824
 30
0.000000
  70
    32
  0
VERTEX
  8
AM_VIS
  5
231
 10
15.8839
 20
4.05823
 30
0.000000
  70
    32
  0
VERTEX
  8
AM_VIS
  5
232
 10
15.8839
 20
4.05821
 30
0.000000
  70
    32
  0
VERTEX
  8
AM_VIS
  5
233
 10
15.8838
 20
4.05819
 30
0.000000
  70
    32
  0
VERTEX
  8
AM_VIS
  5
234
 10
15.8838
 20
4.05818
 30
0.000000
  70
    32
  0
VERTEX
  8
AM_VIS
  5
235
 10
15.8838
 20
4.05816
 30
0.000000
  70
    32
  0
VERTEX
  8
AM_VIS
  5
236
 10
15.8838
 20
4.05814
 30
0.000000
  70
    32
  0
VERTEX
  8
AM_VIS
  5
237
 10
15.8838
 20
4.05812
 30
0.000000
  70
    32
  0
VERTEX
  8
AM_VIS
  5
238
 10
15.8838
 20
4.05810
 30
0.000000
  70
    32
  0
VERTEX
  8
AM_VIS
  5
239
 10
15.8838
 20
4.05808
 30
0.000000
  70
    32
  0
VERTEX
  8
AM_VIS
  5
23A
 10
15.8838
 20
4.05807
 30
0.000000
  70
    32
  0
VERTEX
  8
AM_VIS
  5
23B
 10
15.8838
 20
4.05805
 30
0.000000
  70
    32
  0
VERTEX
  8
AM_VIS
  5
23C
 10
15.8837
 20
4.05803
 30
0.000000
  70
    32
  0
VERTEX
  8
AM_VIS
  5
23D
 10
15.8837
 20
4.05801
 30
0.000000
  70
    32
  0
VERTEX
  8
AM_VIS
  5
23E
 10
15.8837
 20
4.05799
 30
0.000000
  70
    32
  0
VERTEX
  8
AM_VIS
  5
23F
 10
15.8837
 20
4.05797
 30
0.000000
  70
    32
  0
VERTEX
  8
AM_VIS
  5
240
 10
15.8837
 20
4.05795
 30
0.000000
  70
    32
  0
VERTEX
  8
AM_VIS
  5
241
 10
15.8837
 20
4.05792
 30
0.000000
  70
    32
  0
VERTEX
  8
AM_VIS
  5
242
 10
15.8837
 20
4.05790
 30
0.000000
  70
    32
  0
VERTEX
  8
AM_VIS
  5
243
 10
15.8836
 20
4.05788
 30
0.000000
  70
    32
  0
VERTEX
  8
AM_VIS
  5
244
 10
15.8836
 20
4.05786
 30
0.000000
  70
    32
  0
VERTEX
  8
AM_VIS
  5
245
 10
15.8836
 20
4.05784
 30
0.000000
  70
    32
  0
VERTEX
  8
AM_VIS
  5
246
 10
15.8836
 20
4.05781
 30
0.000000
  70
    32
  0
VERTEX
  8
AM_VIS
  5
247
 10
15.8836
 20
4.05779
 30
0.000000
  70
    32
  0
VERTEX
  8
AM_VIS
  5
248
 10
15.8836
 20
4.05777
 30
0.000000
  70
    32
  0
VERTEX
  8
AM_VIS
  5
249
 10
15.8836
 20
4.05775
 30
0.000000
  70
    32
  0
VERTEX
  8
AM_VIS
  5
24A
 10
15.8835
 20
4.05772
 30
0.000000
  70
    32
  0
VERTEX
  8
AM_VIS
  5
24B
 10
15.8835
 20
4.05770
 30
0.000000
  70
    32
  0
VERTEX
  8
AM_VIS
  5
24C
 10
15.8835
 20
4.05767
 30
0.000000
  70
    32
  0
VERTEX
  8
AM_VIS
  5
24D
 10
15.8835
 20
4.05765
 30
0.000000
  70
    32
  0
VERTEX
  8
AM_VIS
  5
24E
 10
15.8835
 20
4.05762
 30
0.000000
  70
    32
  0
VERTEX
  8
AM_VIS
  5
24F
 10
15.8835
 20
4.05760
 30
0.000000
  70
    32
  0
VERTEX
  8
AM_VIS
  5
250
 10
15.8835
 20
4.05757
 30
0.000000
  70
    32
  0
VERTEX
  8
AM_VIS
  5
251
 10
15.8834
 20
4.05755
 30
0.000000
  70
    32
  0
VERTEX
  8
AM_VIS
  5
252
 10
15.8834
 20
4.05752
 30
0.000000
  70
    32
  0
VERTEX
  8
AM_VIS
  5
253
 10
15.8834
 20
4.05750
 30
0.000000
  70
    32
  0
VERTEX
  8
AM_VIS
  5
254
 10
15.8834
 20
4.05747
 30
0.000000
  70
    32
  0
VERTEX
  8
AM_VIS
  5
255
 10
15.8834
 20
4.05744
 30
0.000000
  70
    32
  0
VERTEX
  8
AM_VIS
  5
256
 10
15.8834
 20
4.05742
 30
0.000000
  70
    32
  0
VERTEX
  8
AM_VIS
  5
257
 10
15.8833
 20
4.05739
 30
0.000000
  70
    32
  0
VERTEX
  8
AM_VIS
  5
258
 10
15.8833
 20
4.05736
 30
0.000000
  70
    32
  0
VERTEX
  8
AM_VIS
  5
259
 10
15.8833
 20
4.05733
 30
0.000000
  70
    32
  0
VERTEX
  8
AM_VIS
  5
25A
 10
15.8833
 20
4.05731
 30
0.000000
  70
    32
  0
VERTEX
  8
AM_VIS
  5
25B
 10
15.8833
 20
4.05728
 30
0.000000
  70
    32
  0
VERTEX
  8
AM_VIS
  5
25C
 10
15.8832
 20
4.05725
 30
0.000000
  70
    32
  0
VERTEX
  8
AM_VIS
  5
25D
 10
15.8832
 20
4.05722
 30
0.000000
  70
    32
  0
VERTEX
  8
AM_VIS
  5
25E
 10
15.8832
 20
4.05719
 30
0.000000
  70
    32
  0
VERTEX
  8
AM_VIS
  5
25F
 10
15.8832
 20
4.05716
 30
0.000000
  70
    32
  0
VERTEX
  8
AM_VIS
  5
260
 10
15.8832
 20
4.05713
 30
0.000000
  70
    32
  0
VERTEX
  8
AM_VIS
  5
261
 10
15.8832
 20
4.05710
 30
0.000000
  70
    32
  0
VERTEX
  8
AM_VIS
  5
262
 10
15.8831
 20
4.05707
 30
0.000000
  70
    32
  0
VERTEX
  8
AM_VIS
  5
263
 10
15.8831
 20
4.05704
 30
0.000000
  70
    32
  0
VERTEX
  8
AM_VIS
  5
264
 10
15.8831
 20
4.05701
 30
0.000000
  70
    32
  0
VERTEX
  8
AM_VIS
  5
265
 10
15.8831
 20
4.05698
 30
0.000000
  70
    32
  0
VERTEX
  8
AM_VIS
  5
266
 10
15.8831
 20
4.05695
 30
0.000000
  70
    32
  0
VERTEX
  8
AM_VIS
  5
267
 10
15.8830
 20
4.05692
 30
0.000000
  70
    32
  0
VERTEX
  8
AM_VIS
  5
268
 10
15.8830
 20
4.05688
 30
0.000000
  70
    32
  0
VERTEX
  8
AM_VIS
  5
269
 10
15.8830
 20
4.05685
 30
0.000000
  70
    32
  0
VERTEX
  8
AM_VIS
  5
26A
 10
15.8830
 20
4.05682
 30
0.000000
  70
    32
  0
VERTEX
  8
AM_VIS
  5
26B
 10
15.8830
 20
4.05679
 30
0.000000
  70
    32
  0
VERTEX
  8
AM_VIS
  5
26C
 10
15.8829
 20
4.05675
 30
0.000000
  70
    32
  0
VERTEX
  8
AM_VIS
  5
26D
 10
15.8829
 20
4.05672
 30
0.000000
  70
    32
  0
VERTEX
  8
AM_VIS
  5
26E
 10
15.8829
 20
4.05669
 30
0.000000
  70
    32
  0
VERTEX
  8
AM_VIS
  5
26F
 10
15.8829
 20
4.05665
 30
0.000000
  70
    32
  0
VERTEX
  8
AM_VIS
  5
270
 10
15.8828
 20
4.05662
 30
0.000000
  70
    32
  0
VERTEX
  8
AM_VIS
  5
271
 10
15.8828
 20
4.05659
 30
0.000000
  70
    32
  0
VERTEX
  8
AM_VIS
  5
272
 10
15.8828
 20
4.05655
 30
0.000000
  70
    32
  0
VERTEX
  8
AM_VIS
  5
273
 10
15.8828
 20
4.05652
 30
0.000000
  70
    32
  0
VERTEX
  8
AM_VIS
  5
274
 10
15.8828
 20
4.05648
 30
0.000000
  70
    32
  0
VERTEX
  8
AM_VIS
  5
275
 10
15.8827
 20
4.05645
 30
0.000000
  70
    32
  0
VERTEX
  8
AM_VIS
  5
276
 10
15.8827
 20
4.05641
 30
0.000000
  70
    32
  0
VERTEX
  8
AM_VIS
  5
277
 10
15.8827
 20
4.05637
 30
0.000000
  70
    32
  0
VERTEX
  8
AM_VIS
  5
278
 10
15.8827
 20
4.05634
 30
0.000000
  70
    32
  0
VERTEX
  8
AM_VIS
  5
279
 10
15.8826
 20
4.05630
 30
0.000000
  70
    32
  0
VERTEX
  8
AM_VIS
  5
27A
 10
15.8826
 20
4.05627
 30
0.000000
  70
    32
  0
VERTEX
  8
AM_VIS
  5
27B
 10
15.8826
 20
4.05623
 30
0.000000
  70
    32
  0
VERTEX
  8
AM_VIS
  5
27C
 10
15.8826
 20
4.05619
 30
0.000000
  70
    32
  0
VERTEX
  8
AM_VIS
  5
27D
 10
15.8825
 20
4.05615
 30
0.000000
  70
    32
  0
VERTEX
  8
AM_VIS
  5
27E
 10
15.8825
 20
4.05612
 30
0.000000
  70
    32
  0
VERTEX
  8
AM_VIS
  5
27F
 10
15.8825
 20
4.05608
 30
0.000000
  70
    32
  0
VERTEX
  8
AM_VIS
  5
280
 10
15.8825
 20
4.05604
 30
0.000000
  70
    32
  0
VERTEX
  8
AM_VIS
  5
281
 10
15.8824
 20
4.05600
 30
0.000000
  70
    32
  0
VERTEX
  8
AM_VIS
  5
282
 10
15.8824
 20
4.05596
 30
0.000000
  70
    32
  0
VERTEX
  8
AM_VIS
  5
283
 10
15.8824
 20
4.05592
 30
0.000000
  70
    32
  0
VERTEX
  8
AM_VIS
  5
284
 10
15.8824
 20
4.05589
 30
0.000000
  70
    32
  0
VERTEX
  8
AM_VIS
  5
285
 10
15.8823
 20
4.05585
 30
0.000000
  70
    32
  0
VERTEX
  8
AM_VIS
  5
286
 10
15.8823
 20
4.05581
 30
0.000000
  70
    32
  0
VERTEX
  8
AM_VIS
  5
287
 10
15.8823
 20
4.05577
 30
0.000000
  70
    32
  0
VERTEX
  8
AM_VIS
  5
288
 10
15.8823
 20
4.05573
 30
0.000000
  70
    32
  0
VERTEX
  8
AM_VIS
  5
289
 10
15.8822
 20
4.05569
 30
0.000000
  70
    32
  0
VERTEX
  8
AM_VIS
  5
28A
 10
15.8822
 20
4.05565
 30
0.000000
  70
    32
  0
VERTEX
  8
AM_VIS
  5
28B
 10
15.8822
 20
4.05561
 30
0.000000
  70
    32
  0
VERTEX
  8
AM_VIS
  5
28C
 10
15.8822
 20
4.05556
 30
0.000000
  70
    32
  0
VERTEX
  8
AM_VIS
  5
28D
 10
15.8821
 20
4.05552
 30
0.000000
  70
    32
  0
VERTEX
  8
AM_VIS
  5
28E
 10
15.8821
 20
4.05548
 30
0.000000
  70
    32
  0
VERTEX
  8
AM_VIS
  5
28F
 10
15.8821
 20
4.05544
 30
0.000000
  70
    32
  0
VERTEX
  8
AM_VIS
  5
290
 10
15.8820
 20
4.05540
 30
0.000000
  70
    32
  0
VERTEX
  8
AM_VIS
  5
291
 10
15.8820
 20
4.05536
 30
0.000000
  70
    32
  0
VERTEX
  8
AM_VIS
  5
292
 10
15.8820
 20
4.05531
 30
0.000000
  70
    32
  0
VERTEX
  8
AM_VIS
  5
293
 10
15.8820
 20
4.05527
 30
0.000000
  70
    32
  0
VERTEX
  8
AM_VIS
  5
294
 10
15.8819
 20
4.05523
 30
0.000000
  70
    32
  0
VERTEX
  8
AM_VIS
  5
295
 10
15.8819
 20
4.05519
 30
0.000000
  70
    32
  0
VERTEX
  8
AM_VIS
  5
296
 10
15.8819
 20
4.05514
 30
0.000000
  70
    32
  0
VERTEX
  8
AM_VIS
  5
297
 10
15.8819
 20
4.05510
 30
0.000000
  70
    32
  0
VERTEX
  8
AM_VIS
  5
298
 10
15.8818
 20
4.05505
 30
0.000000
  70
    32
  0
VERTEX
  8
AM_VIS
  5
299
 10
15.8818
 20
4.05501
 30
0.000000
  70
    32
  0
VERTEX
  8
AM_VIS
  5
29A
 10
15.8818
 20
4.05497
 30
0.000000
  70
    32
  0
VERTEX
  8
AM_VIS
  5
29B
 10
15.8817
 20
4.05492
 30
0.000000
  70
    32
  0
VERTEX
  8
AM_VIS
  5
29C
 10
15.8817
 20
4.05488
 30
0.000000
  70
    32
  0
VERTEX
  8
AM_VIS
  5
29D
 10
15.8817
 20
4.05483
 30
0.000000
  70
    32
  0
VERTEX
  8
AM_VIS
  5
29E
 10
15.8816
 20
4.05479
 30
0.000000
  70
    32
  0
VERTEX
  8
AM_VIS
  5
29F
 10
15.8816
 20
4.05474
 30
0.000000
  70
    32
  0
VERTEX
  8
AM_VIS
  5
2A0
 10
15.8816
 20
4.05470
 30
0.000000
  70
    32
  0
VERTEX
  8
AM_VIS
  5
2A1
 10
15.8816
 20
4.05465
 30
0.000000
  70
    32
  0
VERTEX
  8
AM_VIS
  5
2A2
 10
15.8815
 20
4.05460
 30
0.000000
  70
    32
  0
VERTEX
  8
AM_VIS
  5
2A3
 10
15.8815
 20
4.05456
 30
0.000000
  70
    32
  0
VERTEX
  8
AM_VIS
  5
2A4
 10
15.8815
 20
4.05451
 30
0.000000
  70
    32
  0
VERTEX
  8
AM_VIS
  5
2A5
 10
15.8814
 20
4.05446
 30
0.000000
  70
    32
  0
VERTEX
  8
AM_VIS
  5
2A6
 10
15.8814
 20
4.05442
 30
0.000000
  70
    32
  0
VERTEX
  8
AM_VIS
  5
2A7
 10
15.8814
 20
4.05437
 30
0.000000
  70
    32
  0
VERTEX
  8
AM_VIS
  5
2A8
 10
15.8813
 20
4.05432
 30
0.000000
  70
    32
  0
VERTEX
  8
AM_VIS
  5
2A9
 10
15.8813
 20
4.05428
 30
0.000000
  70
    32
  0
VERTEX
  8
AM_VIS
  5
2AA
 10
15.8813
 20
4.05423
 30
0.000000
  70
    32
  0
VERTEX
  8
AM_VIS
  5
2AB
 10
15.8812
 20
4.05418
 30
0.000000
  70
    32
  0
VERTEX
  8
AM_VIS
  5
2AC
 10
15.8812
 20
4.05413
 30
0.000000
  70
    32
  0
VERTEX
  8
AM_VIS
  5
2AD
 10
15.8812
 20
4.05408
 30
0.000000
  70
    32
  0
VERTEX
  8
AM_VIS
  5
2AE
 10
15.8811
 20
4.05403
 30
0.000000
  70
    32
  0
VERTEX
  8
AM_VIS
  5
2AF
 10
15.8811
 20
4.05399
 30
0.000000
  70
    32
  0
VERTEX
  8
AM_VIS
  5
2B0
 10
15.8811
 20
4.05394
 30
0.000000
  70
    32
  0
VERTEX
  8
AM_VIS
  5
2B1
 10
15.8810
 20
4.05389
 30
0.000000
  70
    32
  0
VERTEX
  8
AM_VIS
  5
2B2
 10
15.8810
 20
4.05384
 30
0.000000
  70
    32
  0
VERTEX
  8
AM_VIS
  5
2B3
 10
15.8810
 20
4.05379
 30
0.000000
  70
    32
  0
VERTEX
  8
AM_VIS
  5
2B4
 10
15.8809
 20
4.05374
 30
0.000000
  70
    32
  0
VERTEX
  8
AM_VIS
  5
2B5
 10
15.8809
 20
4.05369
 30
0.000000
  70
    32
  0
VERTEX
  8
AM_VIS
  5
2B6
 10
15.8809
 20
4.05364
 30
0.000000
  70
    32
  0
VERTEX
  8
AM_VIS
  5
2B7
 10
15.8808
 20
4.05359
 30
0.000000
  70
    32
  0
VERTEX
  8
AM_VIS
  5
2B8
 10
15.8808
 20
4.05354
 30
0.000000
  70
    32
  0
VERTEX
  8
AM_VIS
  5
2B9
 10
15.8808
 20
4.05349
 30
0.000000
  70
    32
  0
VERTEX
  8
AM_VIS
  5
2BA
 10
15.8807
 20
4.05343
 30
0.000000
  70
    32
  0
VERTEX
  8
AM_VIS
  5
2BB
 10
15.8807
 20
4.05338
 30
0.000000
  70
    32
  0
VERTEX
  8
AM_VIS
  5
2BC
 10
15.8807
 20
4.05333
 30
0.000000
  70
    32
  0
VERTEX
  8
AM_VIS
  5
2BD
 10
15.8806
 20
4.05328
 30
0.000000
  70
    32
  0
VERTEX
  8
AM_VIS
  5
2BE
 10
15.8806
 20
4.05323
 30
0.000000
  70
    32
  0
VERTEX
  8
AM_VIS
  5
2BF
 10
15.8806
 20
4.05318
 30
0.000000
  70
    32
  0
VERTEX
  8
AM_VIS
  5
2C0
 10
15.8805
 20
4.05312
 30
0.000000
  70
    32
  0
VERTEX
  8
AM_VIS
  5
2C1
 10
15.8805
 20
4.05307
 30
0.000000
  70
    32
  0
VERTEX
  8
AM_VIS
  5
2C2
 10
15.8804
 20
4.05302
 30
0.000000
  70
    32
  0
VERTEX
  8
AM_VIS
  5
2C3
 10
15.8804
 20
4.05297
 30
0.000000
  70
    32
  0
VERTEX
  8
AM_VIS
  5
2C4
 10
15.8804
 20
4.05291
 30
0.000000
  70
    32
  0
VERTEX
  8
AM_VIS
  5
2C5
 10
15.8803
 20
4.05286
 30
0.000000
  70
    32
  0
VERTEX
  8
AM_VIS
  5
2C6
 10
15.8803
 20
4.05281
 30
0.000000
  70
    32
  0
VERTEX
  8
AM_VIS
  5
2C7
 10
15.8803
 20
4.05275
 30
0.000000
  70
    32
  0
VERTEX
  8
AM_VIS
  5
2C8
 10
15.8802
 20
4.05270
 30
0.000000
  70
    32
  0
VERTEX
  8
AM_VIS
  5
2C9
 10
15.8802
 20
4.05264
 30
0.000000
  70
    32
  0
VERTEX
  8
AM_VIS
  5
2CA
 10
15.8801
 20
4.05259
 30
0.000000
  70
    32
  0
VERTEX
  8
AM_VIS
  5
2CB
 10
15.8801
 20
4.05254
 30
0.000000
  70
    32
  0
VERTEX
  8
AM_VIS
  5
2CC
 10
15.8801
 20
4.05248
 30
0.000000
  70
    32
  0
VERTEX
  8
AM_VIS
  5
2CD
 10
15.8800
 20
4.05243
 30
0.000000
  70
    32
  0
VERTEX
  8
AM_VIS
  5
2CE
 10
15.8800
 20
4.05237
 30
0.000000
  70
    32
  0
VERTEX
  8
AM_VIS
  5
2CF
 10
15.8800
 20
4.05232
 30
0.000000
  70
    32
  0
VERTEX
  8
AM_VIS
  5
2D0
 10
15.8799
 20
4.05226
 30
0.000000
  70
    32
  0
VERTEX
  8
AM_VIS
  5
2D1
 10
15.8799
 20
4.05220
 30
0.000000
  70
    32
  0
VERTEX
  8
AM_VIS
  5
2D2
 10
15.8798
 20
4.05215
 30
0.000000
  70
    32
  0
VERTEX
  8
AM_VIS
  5
2D3
 10
15.8798
 20
4.05209
 30
0.000000
  70
    32
  0
VERTEX
  8
AM_VIS
  5
2D4
 10
15.8798
 20
4.05204
 30
0.000000
  70
    32
  0
VERTEX
  8
AM_VIS
  5
2D5
 10
15.8797
 20
4.05198
 30
0.000000
  70
    32
  0
VERTEX
  8
AM_VIS
  5
2D6
 10
15.8797
 20
4.05192
 30
0.000000
  70
    32
  0
VERTEX
  8
AM_VIS
  5
2D7
 10
15.8796
 20
4.05187
 30
0.000000
  70
    32
  0
VERTEX
  8
AM_VIS
  5
2D8
 10
15.8796
 20
4.05181
 30
0.000000
  70
    32
  0
VERTEX
  8
AM_VIS
  5
2D9
 10
15.8796
 20
4.05175
 30
0.000000
  70
    32
  0
VERTEX
  8
AM_VIS
  5
2DA
 10
15.8795
 20
4.05170
 30
0.000000
  70
    32
  0
VERTEX
  8
AM_VIS
  5
2DB
 10
15.8795
 20
4.05164
 30
0.000000
  70
    32
  0
VERTEX
  8
AM_VIS
  5
2DC
 10
15.8794
 20
4.05158
 30
0.000000
  70
    32
  0
VERTEX
  8
AM_VIS
  5
2DD
 10
15.8794
 20
4.05152
 30
0.000000
  70
    32
  0
VERTEX
  8
AM_VIS
  5
2DE
 10
15.8794
 20
4.05147
 30
0.000000
  70
    32
  0
VERTEX
  8
AM_VIS
  5
2DF
 10
15.8793
 20
4.05141
 30
0.000000
  70
    32
  0
VERTEX
  8
AM_VIS
  5
2E0
 10
15.8793
 20
4.05135
 30
0.000000
  70
    32
  0
VERTEX
  8
AM_VIS
  5
2E1
 10
15.8792
 20
4.05129
 30
0.000000
  70
    32
  0
VERTEX
  8
AM_VIS
  5
2E2
 10
15.8792
 20
4.05123
 30
0.000000
  70
    32
  0
VERTEX
  8
AM_VIS
  5
2E3
 10
15.8791
 20
4.05117
 30
0.000000
  70
    32
  0
VERTEX
  8
AM_VIS
  5
2E4
 10
15.8791
 20
4.05111
 30
0.000000
  70
    32
  0
VERTEX
  8
AM_VIS
  5
2E5
 10
15.8791
 20
4.05105
 30
0.000000
  70
    32
  0
VERTEX
  8
AM_VIS
  5
2E6
 10
15.8790
 20
4.05100
 30
0.000000
  70
    32
  0
VERTEX
  8
AM_VIS
  5
2E7
 10
15.8790
 20
4.05094
 30
0.000000
  70
    32
  0
VERTEX
  8
AM_VIS
  5
2E8
 10
15.8789
 20
4.05088
 30
0.000000
  70
    32
  0
VERTEX
  8
AM_VIS
  5
2E9
 10
15.8789
 20
4.05082
 30
0.000000
  70
    32
  0
VERTEX
  8
AM_VIS
  5
2EA
 10
15.8788
 20
4.05076
 30
0.000000
  70
    32
  0
VERTEX
  8
AM_VIS
  5
2EB
 10
15.8788
 20
4.05070
 30
0.000000
  70
    32
  0
VERTEX
  8
AM_VIS
  5
2EC
 10
15.8788
 20
4.05064
 30
0.000000
  70
    32
  0
VERTEX
  8
AM_VIS
  5
2ED
 10
15.8787
 20
4.05058
 30
0.000000
  70
    32
  0
VERTEX
  8
AM_VIS
  5
2EE
 10
15.8787
 20
4.05051
 30
0.000000
  70
    32
  0
VERTEX
  8
AM_VIS
  5
2EF
 10
15.8786
 20
4.05045
 30
0.000000
  70
    32
  0
VERTEX
  8
AM_VIS
  5
2F0
 10
15.8786
 20
4.05039
 30
0.000000
  70
    32
  0
VERTEX
  8
AM_VIS
  5
2F1
 10
15.8785
 20
4.05033
 30
0.000000
  70
    32
  0
VERTEX
  8
AM_VIS
  5
2F2
 10
15.8785
 20
4.05027
 30
0.000000
  70
    32
  0
VERTEX
  8
AM_VIS
  5
2F3
 10
15.8784
 20
4.05021
 30
0.000000
  70
    32
  0
VERTEX
  8
AM_VIS
  5
2F4
 10
15.8784
 20
4.05015
 30
0.000000
  70
    32
  0
VERTEX
  8
AM_VIS
  5
2F5
 10
15.8783
 20
4.05009
 30
0.000000
  70
    32
  0
VERTEX
  8
AM_VIS
  5
2F6
 10
15.8783
 20
4.05002
 30
0.000000
  70
    32
  0
VERTEX
  8
AM_VIS
  5
2F7
 10
15.8783
 20
4.04996
 30
0.000000
  70
    32
  0
VERTEX
  8
AM_VIS
  5
2F8
 10
15.8782
 20
4.04990
 30
0.000000
  70
    32
  0
VERTEX
  8
AM_VIS
  5
2F9
 10
15.8782
 20
4.04984
 30
0.000000
  70
    32
  0
VERTEX
  8
AM_VIS
  5
2FA
 10
15.8781
 20
4.04977
 30
0.000000
  70
    32
  0
VERTEX
  8
AM_VIS
  5
2FB
 10
15.8781
 20
4.04971
 30
0.000000
  70
    32
  0
VERTEX
  8
AM_VIS
  5
2FC
 10
15.8780
 20
4.04965
 30
0.000000
  70
    32
  0
VERTEX
  8
AM_VIS
  5
2FD
 10
15.8780
 20
4.04959
 30
0.000000
  70
    32
  0
VERTEX
  8
AM_VIS
  5
2FE
 10
15.8779
 20
4.04952
 30
0.000000
  70
    32
  0
VERTEX
  8
AM_VIS
  5
2FF
 10
15.8779
 20
4.04946
 30
0.000000
  70
    32
  0
VERTEX
  8
AM_VIS
  5
300
 10
15.8778
 20
4.04940
 30
0.000000
  70
    32
  0
VERTEX
  8
AM_VIS
  5
301
 10
15.8778
 20
4.04933
 30
0.000000
  70
    32
  0
VERTEX
  8
AM_VIS
  5
302
 10
15.8777
 20
4.04927
 30
0.000000
  70
    32
  0
VERTEX
  8
AM_VIS
  5
303
 10
15.8777
 20
4.04920
 30
0.000000
  70
    32
  0
VERTEX
  8
AM_VIS
  5
304
 10
15.8776
 20
4.04914
 30
0.000000
  70
    32
  0
VERTEX
  8
AM_VIS
  5
305
 10
15.8776
 20
4.04908
 30
0.000000
  70
    32
  0
VERTEX
  8
AM_VIS
  5
306
 10
15.8775
 20
4.04901
 30
0.000000
  70
    32
  0
VERTEX
  8
AM_VIS
  5
307
 10
15.8775
 20
4.04895
 30
0.000000
  70
    32
  0
VERTEX
  8
AM_VIS
  5
308
 10
15.8774
 20
4.04888
 30
0.000000
  70
    32
  0
VERTEX
  8
AM_VIS
  5
309
 10
15.8774
 20
4.04882
 30
0.000000
  70
    32
  0
VERTEX
  8
AM_VIS
  5
30A
 10
15.8773
 20
4.04875
 30
0.000000
  70
    32
  0
VERTEX
  8
AM_VIS
  5
30B
 10
15.8773
 20
4.04869
 30
0.000000
  70
    32
  0
VERTEX
  8
AM_VIS
  5
30C
 10
15.8772
 20
4.04862
 30
0.000000
  70
    32
  0
VERTEX
  8
AM_VIS
  5
30D
 10
15.8772
 20
4.04856
 30
0.000000
  70
    32
  0
VERTEX
  8
AM_VIS
  5
30E
 10
15.8771
 20
4.04849
 30
0.000000
  70
    32
  0
VERTEX
  8
AM_VIS
  5
30F
 10
15.8771
 20
4.04843
 30
0.000000
  70
    32
  0
VERTEX
  8
AM_VIS
  5
310
 10
15.8770
 20
4.04836
 30
0.000000
  70
    32
  0
VERTEX
  8
AM_VIS
  5
311
 10
15.8770
 20
4.04830
 30
0.000000
  70
    32
  0
VERTEX
  8
AM_VIS
  5
312
 10
15.8769
 20
4.04823
 30
0.000000
  70
    32
  0
VERTEX
  8
AM_VIS
  5
313
 10
15.8769
 20
4.04817
 30
0.000000
  70
    32
  0
VERTEX
  8
AM_VIS
  5
314
 10
15.8768
 20
4.04810
 30
0.000000
  70
    32
  0
VERTEX
  8
AM_VIS
  5
315
 10
15.8768
 20
4.04803
 30
0.000000
  70
    32
  0
VERTEX
  8
AM_VIS
  5
316
 10
15.8767
 20
4.04797
 30
0.000000
  70
    32
  0
VERTEX
  8
AM_VIS
  5
317
 10
15.8767
 20
4.04790
 30
0.000000
  70
    32
  0
VERTEX
  8
AM_VIS
  5
318
 10
15.8766
 20
4.04784
 30
0.000000
  70
    32
  0
VERTEX
  8
AM_VIS
  5
319
 10
15.8766
 20
4.04777
 30
0.000000
  70
    32
  0
VERTEX
  8
AM_VIS
  5
31A
 10
15.8765
 20
4.04770
 30
0.000000
  70
    32
  0
VERTEX
  8
AM_VIS
  5
31B
 10
15.8765
 20
4.04764
 30
0.000000
  70
    32
  0
VERTEX
  8
AM_VIS
  5
31C
 10
15.8764
 20
4.04757
 30
0.000000
  70
    32
  0
VERTEX
  8
AM_VIS
  5
31D
 10
15.8764
 20
4.04750
 30
0.000000
  70
    32
  0
VERTEX
  8
AM_VIS
  5
31E
 10
15.8763
 20
4.04744
 30
0.000000
  70
    32
  0
VERTEX
  8
AM_VIS
  5
31F
 10
15.8763
 20
4.04737
 30
0.000000
  70
    32
  0
VERTEX
  8
AM_VIS
  5
320
 10
15.8762
 20
4.04730
 30
0.000000
  70
    32
  0
VERTEX
  8
AM_VIS
  5
321
 10
15.8762
 20
4.04724
 30
0.000000
  70
    32
  0
VERTEX
  8
AM_VIS
  5
322
 10
15.8761
 20
4.04717
 30
0.000000
  70
    32
  0
VERTEX
  8
AM_VIS
  5
323
 10
15.8761
 20
4.04710
 30
0.000000
  70
    32
  0
VERTEX
  8
AM_VIS
  5
324
 10
15.8760
 20
4.04704
 30
0.000000
  70
    32
  0
VERTEX
  8
AM_VIS
  5
325
 10
15.8760
 20
4.04697
 30
0.000000
  70
    32
  0
VERTEX
  8
AM_VIS
  5
326
 10
15.8759
 20
4.04690
 30
0.000000
  70
    32
  0
VERTEX
  8
AM_VIS
  5
327
 10
15.8759
 20
4.04683
 30
0.000000
  70
    32
  0
VERTEX
  8
AM_VIS
  5
328
 10
15.8758
 20
4.04677
 30
0.000000
  70
    32
  0
VERTEX
  8
AM_VIS
  5
329
 10
15.8757
 20
4.04670
 30
0.000000
  70
    32
  0
VERTEX
  8
AM_VIS
  5
32A
 10
15.8757
 20
4.04663
 30
0.000000
  70
    32
  0
VERTEX
  8
AM_VIS
  5
32B
 10
15.8756
 20
4.04657
 30
0.000000
  70
    32
  0
VERTEX
  8
AM_VIS
  5
32C
 10
15.8756
 20
4.04650
 30
0.000000
  70
    32
  0
VERTEX
  8
AM_VIS
  5
32D
 10
15.8755
 20
4.04643
 30
0.000000
  70
    32
  0
VERTEX
  8
AM_VIS
  5
32E
 10
15.8755
 20
4.04636
 30
0.000000
  70
    32
  0
VERTEX
  8
AM_VIS
  5
32F
 10
15.8754
 20
4.04629
 30
0.000000
  70
    32
  0
VERTEX
  8
AM_VIS
  5
330
 10
15.8754
 20
4.04623
 30
0.000000
  70
    32
  0
VERTEX
  8
AM_VIS
  5
331
 10
15.8753
 20
4.04616
 30
0.000000
  70
    32
  0
VERTEX
  8
AM_VIS
  5
332
 10
15.8753
 20
4.04609
 30
0.000000
  70
    32
  0
VERTEX
  8
AM_VIS
  5
333
 10
15.8752
 20
4.04602
 30
0.000000
  70
    32
  0
VERTEX
  8
AM_VIS
  5
334
 10
15.8751
 20
4.04596
 30
0.000000
  70
    32
  0
VERTEX
  8
AM_VIS
  5
335
 10
15.8751
 20
4.04589
 30
0.000000
  70
    32
  0
VERTEX
  8
AM_VIS
  5
336
 10
15.8750
 20
4.04582
 30
0.000000
  70
    32
  0
VERTEX
  8
AM_VIS
  5
337
 10
15.8750
 20
4.04575
 30
0.000000
  70
    32
  0
VERTEX
  8
AM_VIS
  5
338
 10
15.8749
 20
4.04568
 30
0.000000
  70
    32
  0
VERTEX
  8
AM_VIS
  5
339
 10
15.8749
 20
4.04562
 30
0.000000
  70
    32
  0
VERTEX
  8
AM_VIS
  5
33A
 10
15.8748
 20
4.04555
 30
0.000000
  70
    32
  0
VERTEX
  8
AM_VIS
  5
33B
 10
15.8747
 20
4.04548
 30
0.000000
  70
    32
  0
VERTEX
  8
AM_VIS
  5
33C
 10
15.8747
 20
4.04541
 30
0.000000
  70
    32
  0
VERTEX
  8
AM_VIS
  5
33D
 10
15.8746
 20
4.04534
 30
0.000000
  70
    32
  0
VERTEX
  8
AM_VIS
  5
33E
 10
15.8746
 20
4.04528
 30
0.000000
  70
    32
  0
VERTEX
  8
AM_VIS
  5
33F
 10
15.8745
 20
4.04521
 30
0.000000
  70
    32
  0
VERTEX
  8
AM_VIS
  5
340
 10
15.8745
 20
4.04514
 30
0.000000
  70
    32
  0
VERTEX
  8
AM_VIS
  5
341
 10
15.8744
 20
4.04507
 30
0.000000
  70
    32
  0
VERTEX
  8
AM_VIS
  5
342
 10
15.8743
 20
4.04500
 30
0.000000
  70
    32
  0
VERTEX
  8
AM_VIS
  5
343
 10
15.8743
 20
4.04493
 30
0.000000
  70
    32
  0
VERTEX
  8
AM_VIS
  5
344
 10
15.8742
 20
4.04486
 30
0.000000
  70
    32
  0
VERTEX
  8
AM_VIS
  5
345
 10
15.8742
 20
4.04480
 30
0.000000
  70
    32
  0
VERTEX
  8
AM_VIS
  5
346
 10
15.8741
 20
4.04473
 30
0.000000
  70
    32
  0
VERTEX
  8
AM_VIS
  5
347
 10
15.8741
 20
4.04466
 30
0.000000
  70
    32
  0
VERTEX
  8
AM_VIS
  5
348
 10
15.8740
 20
4.04459
 30
0.000000
  70
    32
  0
VERTEX
  8
AM_VIS
  5
349
 10
15.8739
 20
4.04452
 30
0.000000
  70
    32
  0
VERTEX
  8
AM_VIS
  5
34A
 10
15.8739
 20
4.04445
 30
0.000000
  70
    32
  0
VERTEX
  8
AM_VIS
  5
34B
 10
15.8738
 20
4.04439
 30
0.000000
  70
    32
  0
VERTEX
  8
AM_VIS
  5
34C
 10
15.8738
 20
4.04432
 30
0.000000
  70
    32
  0
VERTEX
  8
AM_VIS
  5
34D
 10
15.8737
 20
4.04425
 30
0.000000
  70
    32
  0
VERTEX
  8
AM_VIS
  5
34E
 10
15.8736
 20
4.04418
 30
0.000000
  70
    32
  0
VERTEX
  8
AM_VIS
  5
34F
 10
15.8736
 20
4.04411
 30
0.000000
  70
    32
  0
VERTEX
  8
AM_VIS
  5
350
 10
15.8735
 20
4.04404
 30
0.000000
  70
    32
  0
VERTEX
  8
AM_VIS
  5
351
 10
15.8735
 20
4.04397
 30
0.000000
  70
    32
  0
VERTEX
  8
AM_VIS
  5
352
 10
15.8734
 20
4.04391
 30
0.000000
  70
    32
  0
VERTEX
  8
AM_VIS
  5
353
 10
15.8733
 20
4.04384
 30
0.000000
  70
    32
  0
VERTEX
  8
AM_VIS
  5
354
 10
15.8733
 20
4.04377
 30
0.000000
  70
    32
  0
VERTEX
  8
AM_VIS
  5
355
 10
15.8732
 20
4.04370
 30
0.000000
  70
    32
  0
VERTEX
  8
AM_VIS
  5
356
 10
15.8732
 20
4.04363
 30
0.000000
  70
    32
  0
VERTEX
  8
AM_VIS
  5
357
 10
15.8731
 20
4.04356
 30
0.000000
  70
    32
  0
VERTEX
  8
AM_VIS
  5
358
 10
15.8730
 20
4.04349
 30
0.000000
  70
    32
  0
VERTEX
  8
AM_VIS
  5
359
 10
15.8730
 20
4.04343
 30
0.000000
  70
    32
  0
VERTEX
  8
AM_VIS
  5
35A
 10
15.8729
 20
4.04336
 30
0.000000
  70
    32
  0
VERTEX
  8
AM_VIS
  5
35B
 10
15.8729
 20
4.04329
 30
0.000000
  70
    32
  0
VERTEX
  8
AM_VIS
  5
35C
 10
15.8728
 20
4.04322
 30
0.000000
  70
    32
  0
VERTEX
  8
AM_VIS
  5
35D
 10
15.8727
 20
4.04315
 30
0.000000
  70
    32
  0
VERTEX
  8
AM_VIS
  5
35E
 10
15.8727
 20
4.04308
 30
0.000000
  70
    32
  0
VERTEX
  8
AM_VIS
  5
35F
 10
15.8726
 20
4.04301
 30
0.000000
  70
    32
  0
VERTEX
  8
AM_VIS
  5
360
 10
15.8725
 20
4.04295
 30
0.000000
  70
    32
  0
VERTEX
  8
AM_VIS
  5
361
 10
15.8725
 20
4.04288
 30
0.000000
  70
    32
  0
VERTEX
  8
AM_VIS
  5
362
 10
15.8724
 20
4.04281
 30
0.000000
  70
    32
  0
VERTEX
  8
AM_VIS
  5
363
 10
15.8724
 20
4.04274
 30
0.000000
  70
    32
  0
VERTEX
  8
AM_VIS
  5
364
 10
15.8723
 20
4.04267
 30
0.000000
  70
    32
  0
VERTEX
  8
AM_VIS
  5
365
 10
15.8722
 20
4.04260
 30
0.000000
  70
    32
  0
VERTEX
  8
AM_VIS
  5
366
 10
15.8722
 20
4.04254
 30
0.000000
  70
    32
  0
VERTEX
  8
AM_VIS
  5
367
 10
15.8721
 20
4.04247
 30
0.000000
  70
    32
  0
VERTEX
  8
AM_VIS
  5
368
 10
15.8720
 20
4.04240
 30
0.000000
  70
    32
  0
VERTEX
  8
AM_VIS
  5
369
 10
15.8720
 20
4.04233
 30
0.000000
  70
    32
  0
VERTEX
  8
AM_VIS
  5
36A
 10
15.8719
 20
4.04226
 30
0.000000
  70
    32
  0
VERTEX
  8
AM_VIS
  5
36B
 10
15.8719
 20
4.04219
 30
0.000000
  70
    32
  0
VERTEX
  8
AM_VIS
  5
36C
 10
15.8718
 20
4.04213
 30
0.000000
  70
    32
  0
VERTEX
  8
AM_VIS
  5
36D
 10
15.8717
 20
4.04206
 30
0.000000
  70
    32
  0
VERTEX
  8
AM_VIS
  5
36E
 10
15.8717
 20
4.04199
 30
0.000000
  70
    32
  0
VERTEX
  8
AM_VIS
  5
36F
 10
15.8716
 20
4.04192
 30
0.000000
  70
    32
  0
VERTEX
  8
AM_VIS
  5
370
 10
15.8715
 20
4.04185
 30
0.000000
  70
    32
  0
VERTEX
  8
AM_VIS
  5
371
 10
15.8715
 20
4.04178
 30
0.000000
  70
    32
  0
VERTEX
  8
AM_VIS
  5
372
 10
15.8714
 20
4.04172
 30
0.000000
  70
    32
  0
VERTEX
  8
AM_VIS
  5
373
 10
15.8713
 20
4.04165
 30
0.000000
  70
    32
  0
VERTEX
  8
AM_VIS
  5
374
 10
15.8713
 20
4.04158
 30
0.000000
  70
    32
  0
VERTEX
  8
AM_VIS
  5
375
 10
15.8712
 20
4.04151
 30
0.000000
  70
    32
  0
VERTEX
  8
AM_VIS
  5
376
 10
15.8711
 20
4.04145
 30
0.000000
  70
    32
  0
VERTEX
  8
AM_VIS
  5
377
 10
15.8711
 20
4.04138
 30
0.000000
  70
    32
  0
VERTEX
  8
AM_VIS
  5
378
 10
15.8710
 20
4.04131
 30
0.000000
  70
    32
  0
VERTEX
  8
AM_VIS
  5
379
 10
15.8709
 20
4.04124
 30
0.000000
  70
    32
  0
VERTEX
  8
AM_VIS
  5
37A
 10
15.8709
 20
4.04117
 30
0.000000
  70
    32
  0
VERTEX
  8
AM_VIS
  5
37B
 10
15.8708
 20
4.04111
 30
0.000000
  70
    32
  0
VERTEX
  8
AM_VIS
  5
37C
 10
15.8707
 20
4.04104
 30
0.000000
  70
    32
  0
VERTEX
  8
AM_VIS
  5
37D
 10
15.8707
 20
4.04097
 30
0.000000
  70
    32
  0
VERTEX
  8
AM_VIS
  5
37E
 10
15.8706
 20
4.04090
 30
0.000000
  70
    32
  0
VERTEX
  8
AM_VIS
  5
37F
 10
15.8705
 20
4.04084
 30
0.000000
  70
    32
  0
VERTEX
  8
AM_VIS
  5
380
 10
15.8705
 20
4.04077
 30
0.000000
  70
    32
  0
VERTEX
  8
AM_VIS
  5
381
 10
15.8704
 20
4.04070
 30
0.000000
  70
    32
  0
VERTEX
  8
AM_VIS
  5
382
 10
15.8703
 20
4.04064
 30
0.000000
  70
    32
  0
VERTEX
  8
AM_VIS
  5
383
 10
15.8703
 20
4.04057
 30
0.000000
  70
    32
  0
VERTEX
  8
AM_VIS
  5
384
 10
15.8702
 20
4.04050
 30
0.000000
  70
    32
  0
VERTEX
  8
AM_VIS
  5
385
 10
15.8701
 20
4.04043
 30
0.000000
  70
    32
  0
VERTEX
  8
AM_VIS
  5
386
 10
15.8701
 20
4.04037
 30
0.000000
  70
    32
  0
VERTEX
  8
AM_VIS
  5
387
 10
15.8700
 20
4.04030
 30
0.000000
  70
    32
  0
VERTEX
  8
AM_VIS
  5
388
 10
15.8699
 20
4.04023
 30
0.000000
  70
    32
  0
VERTEX
  8
AM_VIS
  5
389
 10
15.8699
 20
4.04017
 30
0.000000
  70
    32
  0
VERTEX
  8
AM_VIS
  5
38A
 10
15.8698
 20
4.04010
 30
0.000000
  70
    32
  0
VERTEX
  8
AM_VIS
  5
38B
 10
15.8697
 20
4.04003
 30
0.000000
  70
    32
  0
VERTEX
  8
AM_VIS
  5
38C
 10
15.8697
 20
4.03997
 30
0.000000
  70
    32
  0
VERTEX
  8
AM_VIS
  5
38D
 10
15.8696
 20
4.03990
 30
0.000000
  70
    32
  0
VERTEX
  8
AM_VIS
  5
38E
 10
15.8695
 20
4.03984
 30
0.000000
  70
    32
  0
VERTEX
  8
AM_VIS
  5
38F
 10
15.8695
 20
4.03977
 30
0.000000
  70
    32
  0
VERTEX
  8
AM_VIS
  5
390
 10
15.8694
 20
4.03970
 30
0.000000
  70
    32
  0
VERTEX
  8
AM_VIS
  5
391
 10
15.8693
 20
4.03964
 30
0.000000
  70
    32
  0
VERTEX
  8
AM_VIS
  5
392
 10
15.8693
 20
4.03957
 30
0.000000
  70
    32
  0
VERTEX
  8
AM_VIS
  5
393
 10
15.8692
 20
4.03951
 30
0.000000
  70
    32
  0
VERTEX
  8
AM_VIS
  5
394
 10
15.8691
 20
4.03944
 30
0.000000
  70
    32
  0
VERTEX
  8
AM_VIS
  5
395
 10
15.8690
 20
4.03937
 30
0.000000
  70
    32
  0
VERTEX
  8
AM_VIS
  5
396
 10
15.8690
 20
4.03931
 30
0.000000
  70
    32
  0
VERTEX
  8
AM_VIS
  5
397
 10
15.8689
 20
4.03924
 30
0.000000
  70
    32
  0
VERTEX
  8
AM_VIS
  5
398
 10
15.8688
 20
4.03918
 30
0.000000
  70
    32
  0
VERTEX
  8
AM_VIS
  5
399
 10
15.8688
 20
4.03911
 30
0.000000
  70
    32
  0
VERTEX
  8
AM_VIS
  5
39A
 10
15.8687
 20
4.03905
 30
0.000000
  70
    32
  0
VERTEX
  8
AM_VIS
  5
39B
 10
15.8686
 20
4.03898
 30
0.000000
  70
    32
  0
VERTEX
  8
AM_VIS
  5
39C
 10
15.8686
 20
4.03892
 30
0.000000
  70
    32
  0
VERTEX
  8
AM_VIS
  5
39D
 10
15.8685
 20
4.03885
 30
0.000000
  70
    32
  0
VERTEX
  8
AM_VIS
  5
39E
 10
15.8684
 20
4.03879
 30
0.000000
  70
    32
  0
VERTEX
  8
AM_VIS
  5
39F
 10
15.8683
 20
4.03872
 30
0.000000
  70
    32
  0
VERTEX
  8
AM_VIS
  5
3A0
 10
15.8683
 20
4.03866
 30
0.000000
  70
    32
  0
VERTEX
  8
AM_VIS
  5
3A1
 10
15.8682
 20
4.03859
 30
0.000000
  70
    32
  0
VERTEX
  8
AM_VIS
  5
3A2
 10
15.8681
 20
4.03853
 30
0.000000
  70
    32
  0
VERTEX
  8
AM_VIS
  5
3A3
 10
15.8680
 20
4.03846
 30
0.000000
  70
    32
  0
VERTEX
  8
AM_VIS
  5
3A4
 10
15.8680
 20
4.03840
 30
0.000000
  70
    32
  0
VERTEX
  8
AM_VIS
  5
3A5
 10
15.8679
 20
4.03834
 30
0.000000
  70
    32
  0
VERTEX
  8
AM_VIS
  5
3A6
 10
15.8678
 20
4.03827
 30
0.000000
  70
    32
  0
VERTEX
  8
AM_VIS
  5
3A7
 10
15.8678
 20
4.03821
 30
0.000000
  70
    32
  0
VERTEX
  8
AM_VIS
  5
3A8
 10
15.8677
 20
4.03814
 30
0.000000
  70
    32
  0
VERTEX
  8
AM_VIS
  5
3A9
 10
15.8676
 20
4.03808
 30
0.000000
  70
    32
  0
VERTEX
  8
AM_VIS
  5
3AA
 10
15.8675
 20
4.03802
 30
0.000000
  70
    32
  0
VERTEX
  8
AM_VIS
  5
3AB
 10
15.8675
 20
4.03795
 30
0.000000
  70
    32
  0
VERTEX
  8
AM_VIS
  5
3AC
 10
15.8674
 20
4.03789
 30
0.000000
  70
    32
  0
VERTEX
  8
AM_VIS
  5
3AD
 10
15.8673
 20
4.03783
 30
0.000000
  70
    32
  0
VERTEX
  8
AM_VIS
  5
3AE
 10
15.8672
 20
4.03776
 30
0.000000
  70
    32
  0
VERTEX
  8
AM_VIS
  5
3AF
 10
15.8672
 20
4.03770
 30
0.000000
  70
    32
  0
VERTEX
  8
AM_VIS
  5
3B0
 10
15.8671
 20
4.03764
 30
0.000000
  70
    32
  0
VERTEX
  8
AM_VIS
  5
3B1
 10
15.8670
 20
4.03758
 30
0.000000
  70
    32
  0
VERTEX
  8
AM_VIS
  5
3B2
 10
15.8670
 20
4.03751
 30
0.000000
  70
    32
  0
VERTEX
  8
AM_VIS
  5
3B3
 10
15.8669
 20
4.03745
 30
0.000000
  70
    32
  0
VERTEX
  8
AM_VIS
  5
3B4
 10
15.8668
 20
4.03739
 30
0.000000
  70
    32
  0
VERTEX
  8
AM_VIS
  5
3B5
 10
15.8667
 20
4.03733
 30
0.000000
  70
    32
  0
VERTEX
  8
AM_VIS
  5
3B6
 10
15.8667
 20
4.03726
 30
0.000000
  70
    32
  0
VERTEX
  8
AM_VIS
  5
3B7
 10
15.8666
 20
4.03720
 30
0.000000
  70
    32
  0
VERTEX
  8
AM_VIS
  5
3B8
 10
15.8665
 20
4.03714
 30
0.000000
  70
    32
  0
VERTEX
  8
AM_VIS
  5
3B9
 10
15.8664
 20
4.03708
 30
0.000000
  70
    32
  0
VERTEX
  8
AM_VIS
  5
3BA
 10
15.8664
 20
4.03702
 30
0.000000
  70
    32
  0
VERTEX
  8
AM_VIS
  5
3BB
 10
15.8663
 20
4.03696
 30
0.000000
  70
    32
  0
VERTEX
  8
AM_VIS
  5
3BC
 10
15.8662
 20
4.03689
 30
0.000000
  70
    32
  0
VERTEX
  8
AM_VIS
  5
3BD
 10
15.8661
 20
4.03683
 30
0.000000
  70
    32
  0
VERTEX
  8
AM_VIS
  5
3BE
 10
15.8661
 20
4.03677
 30
0.000000
  70
    32
  0
VERTEX
  8
AM_VIS
  5
3BF
 10
15.8660
 20
4.03671
 30
0.000000
  70
    32
  0
VERTEX
  8
AM_VIS
  5
3C0
 10
15.8659
 20
4.03665
 30
0.000000
  70
    32
  0
VERTEX
  8
AM_VIS
  5
3C1
 10
15.8658
 20
4.03659
 30
0.000000
  70
    32
  0
VERTEX
  8
AM_VIS
  5
3C2
 10
15.8657
 20
4.03653
 30
0.000000
  70
    32
  0
VERTEX
  8
AM_VIS
  5
3C3
 10
15.8657
 20
4.03647
 30
0.000000
  70
    32
  0
VERTEX
  8
AM_VIS
  5
3C4
 10
15.8656
 20
4.03641
 30
0.000000
  70
    32
  0
VERTEX
  8
AM_VIS
  5
3C5
 10
15.8655
 20
4.03635
 30
0.000000
  70
    32
  0
VERTEX
  8
AM_VIS
  5
3C6
 10
15.8654
 20
4.03629
 30
0.000000
  70
    32
  0
VERTEX
  8
AM_VIS
  5
3C7
 10
15.8654
 20
4.03623
 30
0.000000
  70
    32
  0
VERTEX
  8
AM_VIS
  5
3C8
 10
15.8653
 20
4.03617
 30
0.000000
  70
    32
  0
VERTEX
  8
AM_VIS
  5
3C9
 10
15.8652
 20
4.03611
 30
0.000000
  70
    32
  0
VERTEX
  8
AM_VIS
  5
3CA
 10
15.8651
 20
4.03605
 30
0.000000
  70
    32
  0
VERTEX
  8
AM_VIS
  5
3CB
 10
15.8650
 20
4.03599
 30
0.000000
  70
    32
  0
VERTEX
  8
AM_VIS
  5
3CC
 10
15.8650
 20
4.03593
 30
0.000000
  70
    32
  0
VERTEX
  8
AM_VIS
  5
3CD
 10
15.8649
 20
4.03587
 30
0.000000
  70
    32
  0
VERTEX
  8
AM_VIS
  5
3CE
 10
15.8648
 20
4.03581
 30
0.000000
  70
    32
  0
VERTEX
  8
AM_VIS
  5
3CF
 10
15.8647
 20
4.03575
 30
0.000000
  70
    32
  0
VERTEX
  8
AM_VIS
  5
3D0
 10
15.8646
 20
4.03569
 30
0.000000
  70
    32
  0
VERTEX
  8
AM_VIS
  5
3D1
 10
15.8646
 20
4.03564
 30
0.000000
  70
    32
  0
VERTEX
  8
AM_VIS
  5
3D2
 10
15.8645
 20
4.03558
 30
0.000000
  70
    32
  0
VERTEX
  8
AM_VIS
  5
3D3
 10
15.8644
 20
4.03552
 30
0.000000
  70
    32
  0
VERTEX
  8
AM_VIS
  5
3D4
 10
15.8643
 20
4.03546
 30
0.000000
  70
    32
  0
VERTEX
  8
AM_VIS
  5
3D5
 10
15.8642
 20
4.03540
 30
0.000000
  70
    32
  0
VERTEX
  8
AM_VIS
  5
3D6
 10
15.8642
 20
4.03535
 30
0.000000
  70
    32
  0
VERTEX
  8
AM_VIS
  5
3D7
 10
15.8641
 20
4.03529
 30
0.000000
  70
    32
  0
VERTEX
  8
AM_VIS
  5
3D8
 10
15.8640
 20
4.03523
 30
0.000000
  70
    32
  0
VERTEX
  8
AM_VIS
  5
3D9
 10
15.8639
 20
4.03518
 30
0.000000
  70
    32
  0
VERTEX
  8
AM_VIS
  5
3DA
 10
15.8638
 20
4.03512
 30
0.000000
  70
    32
  0
VERTEX
  8
AM_VIS
  5
3DB
 10
15.8638
 20
4.03506
 30
0.000000
  70
    32
  0
VERTEX
  8
AM_VIS
  5
3DC
 10
15.8637
 20
4.03501
 30
0.000000
  70
    32
  0
VERTEX
  8
AM_VIS
  5
3DD
 10
15.8636
 20
4.03495
 30
0.000000
  70
    32
  0
VERTEX
  8
AM_VIS
  5
3DE
 10
15.8635
 20
4.03490
 30
0.000000
  70
    32
  0
VERTEX
  8
AM_VIS
  5
3DF
 10
15.8634
 20
4.03484
 30
0.000000
  70
    32
  0
VERTEX
  8
AM_VIS
  5
3E0
 10
15.8633
 20
4.03478
 30
0.000000
  70
    32
  0
VERTEX
  8
AM_VIS
  5
3E1
 10
15.8633
 20
4.03473
 30
0.000000
  70
    32
  0
VERTEX
  8
AM_VIS
  5
3E2
 10
15.8632
 20
4.03467
 30
0.000000
  70
    32
  0
VERTEX
  8
AM_VIS
  5
3E3
 10
15.8631
 20
4.03462
 30
0.000000
  70
    32
  0
VERTEX
  8
AM_VIS
  5
3E4
 10
15.8630
 20
4.03457
 30
0.000000
  70
    32
  0
VERTEX
  8
AM_VIS
  5
3E5
 10
15.8629
 20
4.03451
 30
0.000000
  70
    32
  0
VERTEX
  8
AM_VIS
  5
3E6
 10
15.8628
 20
4.03446
 30
0.000000
  70
    32
  0
VERTEX
  8
AM_VIS
  5
3E7
 10
15.8628
 20
4.03440
 30
0.000000
  70
    32
  0
VERTEX
  8
AM_VIS
  5
3E8
 10
15.8627
 20
4.03435
 30
0.000000
  70
    32
  0
VERTEX
  8
AM_VIS
  5
3E9
 10
15.8626
 20
4.03430
 30
0.000000
  70
    32
  0
VERTEX
  8
AM_VIS
  5
3EA
 10
15.8625
 20
4.03424
 30
0.000000
  70
    32
  0
VERTEX
  8
AM_VIS
  5
3EB
 10
15.8624
 20
4.03419
 30
0.000000
  70
    32
  0
VERTEX
  8
AM_VIS
  5
3EC
 10
15.8623
 20
4.03414
 30
0.000000
  70
    32
  0
VERTEX
  8
AM_VIS
  5
3ED
 10
15.8623
 20
4.03409
 30
0.000000
  70
    32
  0
VERTEX
  8
AM_VIS
  5
3EE
 10
15.8622
 20
4.03403
 30
0.000000
  70
    32
  0
VERTEX
  8
AM_VIS
  5
3EF
 10
15.8621
 20
4.03398
 30
0.000000
  70
    32
  0
VERTEX
  8
AM_VIS
  5
3F0
 10
15.8620
 20
4.03393
 30
0.000000
  70
    32
  0
VERTEX
  8
AM_VIS
  5
3F1
 10
15.8619
 20
4.03388
 30
0.000000
  70
    32
  0
VERTEX
  8
AM_VIS
  5
3F2
 10
15.8618
 20
4.03383
 30
0.000000
  70
    32
  0
VERTEX
  8
AM_VIS
  5
3F3
 10
15.8617
 20
4.03378
 30
0.000000
  70
    32
  0
VERTEX
  8
AM_VIS
  5
3F4
 10
15.8617
 20
4.03373
 30
0.000000
  70
    32
  0
VERTEX
  8
AM_VIS
  5
3F5
 10
15.8616
 20
4.03368
 30
0.000000
  70
    32
  0
VERTEX
  8
AM_VIS
  5
3F6
 10
15.8615
 20
4.03363
 30
0.000000
  70
    32
  0
VERTEX
  8
AM_VIS
  5
3F7
 10
15.8614
 20
4.03358
 30
0.000000
  70
    32
  0
VERTEX
  8
AM_VIS
  5
3F8
 10
15.8613
 20
4.03353
 30
0.000000
  70
    32
  0
VERTEX
  8
AM_VIS
  5
3F9
 10
15.8612
 20
4.03348
 30
0.000000
  70
    32
  0
VERTEX
  8
AM_VIS
  5
3FA
 10
15.8611
 20
4.03343
 30
0.000000
  70
    32
  0
VERTEX
  8
AM_VIS
  5
3FB
 10
15.8610
 20
4.03339
 30
0.000000
  70
    32
  0
VERTEX
  8
AM_VIS
  5
3FC
 10
15.8610
 20
4.03334
 30
0.000000
  70
    32
  0
VERTEX
  8
AM_VIS
  5
3FD
 10
15.8609
 20
4.03329
 30
0.000000
  70
    32
  0
VERTEX
  8
AM_VIS
  5
3FE
 10
15.8608
 20
4.03324
 30
0.000000
  70
    32
  0
VERTEX
  8
AM_VIS
  5
3FF
 10
15.8607
 20
4.03320
 30
0.000000
  70
    32
  0
VERTEX
  8
AM_VIS
  5
400
 10
15.8606
 20
4.03315
 30
0.000000
  70
    32
  0
VERTEX
  8
AM_VIS
  5
401
 10
15.8605
 20
4.03310
 30
0.000000
  70
    32
  0
VERTEX
  8
AM_VIS
  5
402
 10
15.8604
 20
4.03306
 30
0.000000
  70
    32
  0
VERTEX
  8
AM_VIS
  5
403
 10
15.8603
 20
4.03301
 30
0.000000
  70
    32
  0
VERTEX
  8
AM_VIS
  5
404
 10
15.8603
 20
4.03297
 30
0.000000
  70
    32
  0
VERTEX
  8
AM_VIS
  5
405
 10
15.8602
 20
4.03292
 30
0.000000
  70
    32
  0
VERTEX
  8
AM_VIS
  5
406
 10
15.8601
 20
4.03288
 30
0.000000
  70
    32
  0
VERTEX
  8
AM_VIS
  5
407
 10
15.8600
 20
4.03283
 30
0.000000
  70
    32
  0
VERTEX
  8
AM_VIS
  5
408
 10
15.8599
 20
4.03279
 30
0.000000
  70
    32
  0
VERTEX
  8
AM_VIS
  5
409
 10
15.8598
 20
4.03275
 30
0.000000
  70
    32
  0
VERTEX
  8
AM_VIS
  5
40A
 10
15.8597
 20
4.03270
 30
0.000000
  70
    32
  0
VERTEX
  8
AM_VIS
  5
40B
 10
15.8596
 20
4.03266
 30
0.000000
  70
    32
  0
VERTEX
  8
AM_VIS
  5
40C
 10
15.8595
 20
4.03262
 30
0.000000
  70
    32
  0
VERTEX
  8
AM_VIS
  5
40D
 10
15.8594
 20
4.03258
 30
0.000000
  70
    32
  0
VERTEX
  8
AM_VIS
  5
40E
 10
15.8594
 20
4.03253
 30
0.000000
  70
    32
  0
VERTEX
  8
AM_VIS
  5
40F
 10
15.8593
 20
4.03249
 30
0.000000
  70
    32
  0
VERTEX
  8
AM_VIS
  5
410
 10
15.8592
 20
4.03245
 30
0.000000
  70
    32
  0
VERTEX
  8
AM_VIS
  5
411
 10
15.8591
 20
4.03241
 30
0.000000
  70
    32
  0
VERTEX
  8
AM_VIS
  5
412
 10
15.8590
 20
4.03237
 30
0.000000
  70
    32
  0
VERTEX
  8
AM_VIS
  5
413
 10
15.8589
 20
4.03233
 30
0.000000
  70
    32
  0
VERTEX
  8
AM_VIS
  5
414
 10
15.8588
 20
4.03229
 30
0.000000
  70
    32
  0
VERTEX
  8
AM_VIS
  5
415
 10
15.8587
 20
4.03225
 30
0.000000
  70
    32
  0
VERTEX
  8
AM_VIS
  5
416
 10
15.8586
 20
4.03221
 30
0.000000
  70
    32
  0
VERTEX
  8
AM_VIS
  5
417
 10
15.8585
 20
4.03218
 30
0.000000
  70
    32
  0
VERTEX
  8
AM_VIS
  5
418
 10
15.8584
 20
4.03214
 30
0.000000
  70
    32
  0
VERTEX
  8
AM_VIS
  5
419
 10
15.8584
 20
4.03210
 30
0.000000
  70
    32
  0
VERTEX
  8
AM_VIS
  5
41A
 10
15.8583
 20
4.03206
 30
0.000000
  70
    32
  0
VERTEX
  8
AM_VIS
  5
41B
 10
15.8582
 20
4.03203
 30
0.000000
  70
    32
  0
VERTEX
  8
AM_VIS
  5
41C
 10
15.8581
 20
4.03199
 30
0.000000
  70
    32
  0
VERTEX
  8
AM_VIS
  5
41D
 10
15.8580
 20
4.03195
 30
0.000000
  70
    32
  0
VERTEX
  8
AM_VIS
  5
41E
 10
15.8579
 20
4.03192
 30
0.000000
  70
    32
  0
VERTEX
  8
AM_VIS
  5
41F
 10
15.8578
 20
4.03188
 30
0.000000
  70
    32
  0
VERTEX
  8
AM_VIS
  5
420
 10
15.8577
 20
4.03185
 30
0.000000
  70
    32
  0
VERTEX
  8
AM_VIS
  5
421
 10
15.8576
 20
4.03182
 30
0.000000
  70
    32
  0
VERTEX
  8
AM_VIS
  5
422
 10
15.8575
 20
4.03178
 30
0.000000
  70
    32
  0
VERTEX
  8
AM_VIS
  5
423
 10
15.8574
 20
4.03175
 30
0.000000
  70
    32
  0
VERTEX
  8
AM_VIS
  5
424
 10
15.8573
 20
4.03172
 30
0.000000
  70
    32
  0
VERTEX
  8
AM_VIS
  5
425
 10
15.8572
 20
4.03168
 30
0.000000
  70
    32
  0
VERTEX
  8
AM_VIS
  5
426
 10
15.8572
 20
4.03165
 30
0.000000
  70
    32
  0
VERTEX
  8
AM_VIS
  5
427
 10
15.8571
 20
4.03162
 30
0.000000
  70
    32
  0
VERTEX
  8
AM_VIS
  5
428
 10
15.8570
 20
4.03159
 30
0.000000
  70
    32
  0
VERTEX
  8
AM_VIS
  5
429
 10
15.8569
 20
4.03156
 30
0.000000
  70
    32
  0
VERTEX
  8
AM_VIS
  5
42A
 10
15.8568
 20
4.03153
 30
0.000000
  70
    32
  0
VERTEX
  8
AM_VIS
  5
42B
 10
15.8567
 20
4.03150
 30
0.000000
  70
    32
  0
VERTEX
  8
AM_VIS
  5
42C
 10
15.8566
 20
4.03147
 30
0.000000
  70
    32
  0
VERTEX
  8
AM_VIS
  5
42D
 10
15.8565
 20
4.03144
 30
0.000000
  70
    32
  0
VERTEX
  8
AM_VIS
  5
42E
 10
15.8564
 20
4.03141
 30
0.000000
  70
    32
  0
VERTEX
  8
AM_VIS
  5
42F
 10
15.8563
 20
4.03138
 30
0.000000
  70
    32
  0
VERTEX
  8
AM_VIS
  5
430
 10
15.8562
 20
4.03136
 30
0.000000
  70
    32
  0
VERTEX
  8
AM_VIS
  5
431
 10
15.8561
 20
4.03133
 30
0.000000
  70
    32
  0
VERTEX
  8
AM_VIS
  5
432
 10
15.8560
 20
4.03130
 30
0.000000
  70
    32
  0
VERTEX
  8
AM_VIS
  5
433
 10
15.8559
 20
4.03128
 30
0.000000
  70
    32
  0
VERTEX
  8
AM_VIS
  5
434
 10
15.8558
 20
4.03125
 30
0.000000
  70
    32
  0
VERTEX
  8
AM_VIS
  5
435
 10
15.8557
 20
4.03123
 30
0.000000
  70
    32
  0
VERTEX
  8
AM_VIS
  5
436
 10
15.8556
 20
4.03120
 30
0.000000
  70
    32
  0
VERTEX
  8
AM_VIS
  5
437
 10
15.8555
 20
4.03118
 30
0.000000
  70
    32
  0
VERTEX
  8
AM_VIS
  5
438
 10
15.8554
 20
4.03116
 30
0.000000
  70
    32
  0
VERTEX
  8
AM_VIS
  5
439
 10
15.8553
 20
4.03113
 30
0.000000
  70
    32
  0
VERTEX
  8
AM_VIS
  5
43A
 10
15.8553
 20
4.03111
 30
0.000000
  70
    32
  0
VERTEX
  8
AM_VIS
  5
43B
 10
15.8552
 20
4.03109
 30
0.000000
  70
    32
  0
VERTEX
  8
AM_VIS
  5
43C
 10
15.8551
 20
4.03107
 30
0.000000
  70
    32
  0
VERTEX
  8
AM_VIS
  5
43D
 10
15.8550
 20
4.03105
 30
0.000000
  70
    32
  0
VERTEX
  8
AM_VIS
  5
43E
 10
15.8549
 20
4.03103
 30
0.000000
  70
    32
  0
VERTEX
  8
AM_VIS
  5
43F
 10
15.8548
 20
4.03101
 30
0.000000
  70
    32
  0
VERTEX
  8
AM_VIS
  5
440
 10
15.8547
 20
4.03099
 30
0.000000
  70
    32
  0
VERTEX
  8
AM_VIS
  5
441
 10
15.8546
 20
4.03097
 30
0.000000
  70
    32
  0
VERTEX
  8
AM_VIS
  5
442
 10
15.8545
 20
4.03095
 30
0.000000
  70
    32
  0
VERTEX
  8
AM_VIS
  5
443
 10
15.8544
 20
4.03093
 30
0.000000
  70
    32
  0
VERTEX
  8
AM_VIS
  5
444
 10
15.8543
 20
4.03091
 30
0.000000
  70
    32
  0
VERTEX
  8
AM_VIS
  5
445
 10
15.8542
 20
4.03090
 30
0.000000
  70
    32
  0
VERTEX
  8
AM_VIS
  5
446
 10
15.8541
 20
4.03088
 30
0.000000
  70
    32
  0
VERTEX
  8
AM_VIS
  5
447
 10
15.8540
 20
4.03087
 30
0.000000
  70
    32
  0
VERTEX
  8
AM_VIS
  5
448
 10
15.8539
 20
4.03085
 30
0.000000
  70
    32
  0
VERTEX
  8
AM_VIS
  5
449
 10
15.8538
 20
4.03084
 30
0.000000
  70
    32
  0
VERTEX
  8
AM_VIS
  5
44A
 10
15.8537
 20
4.03082
 30
0.000000
  70
    32
  0
VERTEX
  8
AM_VIS
  5
44B
 10
15.8536
 20
4.03081
 30
0.000000
  70
    32
  0
VERTEX
  8
AM_VIS
  5
44C
 10
15.8535
 20
4.03080
 30
0.000000
  70
    32
  0
VERTEX
  8
AM_VIS
  5
44D
 10
15.8534
 20
4.03078
 30
0.000000
  70
    32
  0
VERTEX
  8
AM_VIS
  5
44E
 10
15.8533
 20
4.03077
 30
0.000000
  70
    32
  0
VERTEX
  8
AM_VIS
  5
44F
 10
15.8532
 20
4.03076
 30
0.000000
  70
    32
  0
VERTEX
  8
AM_VIS
  5
450
 10
15.8531
 20
4.03075
 30
0.000000
  70
    32
  0
VERTEX
  8
AM_VIS
  5
451
 10
15.8530
 20
4.03074
 30
0.000000
  70
    32
  0
VERTEX
  8
AM_VIS
  5
452
 10
15.8529
 20
4.03073
 30
0.000000
  70
    32
  0
VERTEX
  8
AM_VIS
  5
453
 10
15.8528
 20
4.03072
 30
0.000000
  70
    32
  0
VERTEX
  8
AM_VIS
  5
454
 10
15.8527
 20
4.03072
 30
0.000000
  70
    32
  0
VERTEX
  8
AM_VIS
  5
455
 10
15.8526
 20
4.03071
 30
0.000000
  70
    32
  0
VERTEX
  8
AM_VIS
  5
456
 10
15.8525
 20
4.03070
 30
0.000000
  70
    32
  0
VERTEX
  8
AM_VIS
  5
457
 10
15.8524
 20
4.03070
 30
0.000000
  70
    32
  0
VERTEX
  8
AM_VIS
  5
458
 10
15.8523
 20
4.03069
 30
0.000000
  70
    32
  0
VERTEX
  8
AM_VIS
  5
459
 10
15.8522
 20
4.03069
 30
0.000000
  70
    32
  0
VERTEX
  8
AM_VIS
  5
45A
 10
15.8521
 20
4.03068
 30
0.000000
  70
    32
  0
VERTEX
  8
AM_VIS
  5
45B
 10
15.8520
 20
4.03068
 30
0.000000
  70
    32
  0
VERTEX
  8
AM_VIS
  5
45C
 10
15.8519
 20
4.03068
 30
0.000000
  70
    32
  0
VERTEX
  8
AM_VIS
  5
45D
 10
15.8518
 20
4.03067
 30
0.000000
  70
    32
  0
VERTEX
  8
AM_VIS
  5
45E
 10
15.8517
 20
4.03067
 30
0.000000
  70
    32
  0
VERTEX
  8
AM_VIS
  5
45F
 10
15.8516
 20
4.03067
 30
0.000000
  70
    32
  0
VERTEX
  8
AM_VIS
  5
460
 10
15.8515
 20
4.03067
 30
0.000000
  70
    32
  0
VERTEX
  8
AM_VIS
  5
461
 10
15.8514
 20
4.03067
 30
0.000000
  70
    32
  0
VERTEX
  8
AM_VIS
  5
462
 10
15.8513
 20
4.03067
 30
0.000000
  70
    32
  0
VERTEX
  8
AM_VIS
  5
463
 10
15.8512
 20
4.03068
 30
0.000000
  70
    32
  0
VERTEX
  8
AM_VIS
  5
464
 10
15.8510
 20
4.03068
 30
0.000000
  70
    32
  0
VERTEX
  8
AM_VIS
  5
465
 10
15.8509
 20
4.03068
 30
0.000000
  70
    32
  0
VERTEX
  8
AM_VIS
  5
466
 10
15.8508
 20
4.03069
 30
0.000000
  70
    32
  0
VERTEX
  8
AM_VIS
  5
467
 10
15.8507
 20
4.03069
 30
0.000000
  70
    32
  0
VERTEX
  8
AM_VIS
  5
468
 10
15.8506
 20
4.03070
 30
0.000000
  70
    32
  0
VERTEX
  8
AM_VIS
  5
469
 10
15.8505
 20
4.03070
 30
0.000000
  70
    32
  0
VERTEX
  8
AM_VIS
  5
46A
 10
15.8504
 20
4.03071
 30
0.000000
  70
    32
  0
VERTEX
  8
AM_VIS
  5
46B
 10
15.8503
 20
4.03072
 30
0.000000
  70
    32
  0
VERTEX
  8
AM_VIS
  5
46C
 10
15.8502
 20
4.03073
 30
0.000000
  70
    32
  0
VERTEX
  8
AM_VIS
  5
46D
 10
15.8501
 20
4.03073
 30
0.000000
  70
    32
  0
VERTEX
  8
AM_VIS
  5
46E
 10
15.8500
 20
4.03074
 30
0.000000
  70
    32
  0
VERTEX
  8
AM_VIS
  5
46F
 10
15.8499
 20
4.03075
 30
0.000000
  70
    32
  0
VERTEX
  8
AM_VIS
  5
470
 10
15.8498
 20
4.03077
 30
0.000000
  70
    32
  0
VERTEX
  8
AM_VIS
  5
471
 10
15.8497
 20
4.03078
 30
0.000000
  70
    32
  0
VERTEX
  8
AM_VIS
  5
472
 10
15.8496
 20
4.03079
 30
0.000000
  70
    32
  0
VERTEX
  8
AM_VIS
  5
473
 10
15.8495
 20
4.03080
 30
0.000000
  70
    32
  0
VERTEX
  8
AM_VIS
  5
474
 10
15.8494
 20
4.03082
 30
0.000000
  70
    32
  0
VERTEX
  8
AM_VIS
  5
475
 10
15.8493
 20
4.03083
 30
0.000000
  70
    32
  0
VERTEX
  8
AM_VIS
  5
476
 10
15.8492
 20
4.03085
 30
0.000000
  70
    32
  0
VERTEX
  8
AM_VIS
  5
477
 10
15.8491
 20
4.03087
 30
0.000000
  70
    32
  0
VERTEX
  8
AM_VIS
  5
478
 10
15.8490
 20
4.03088
 30
0.000000
  70
    32
  0
VERTEX
  8
AM_VIS
  5
479
 10
15.8488
 20
4.03090
 30
0.000000
  70
    32
  0
VERTEX
  8
AM_VIS
  5
47A
 10
15.8487
 20
4.03092
 30
0.000000
  70
    32
  0
VERTEX
  8
AM_VIS
  5
47B
 10
15.8486
 20
4.03094
 30
0.000000
  70
    32
  0
VERTEX
  8
AM_VIS
  5
47C
 10
15.8485
 20
4.03096
 30
0.000000
  70
    32
  0
VERTEX
  8
AM_VIS
  5
47D
 10
15.8484
 20
4.03099
 30
0.000000
  70
    32
  0
VERTEX
  8
AM_VIS
  5
47E
 10
15.8483
 20
4.03101
 30
0.000000
  70
    32
  0
VERTEX
  8
AM_VIS
  5
47F
 10
15.8482
 20
4.03103
 30
0.000000
  70
    32
  0
VERTEX
  8
AM_VIS
  5
480
 10
15.8481
 20
4.03106
 30
0.000000
  70
    32
  0
VERTEX
  8
AM_VIS
  5
481
 10
15.8480
 20
4.03108
 30
0.000000
  70
    32
  0
VERTEX
  8
AM_VIS
  5
482
 10
15.8479
 20
4.03111
 30
0.000000
  70
    32
  0
VERTEX
  8
AM_VIS
  5
483
 10
15.8478
 20
4.03113
 30
0.000000
  70
    32
  0
VERTEX
  8
AM_VIS
  5
484
 10
15.8477
 20
4.03116
 30
0.000000
  70
    32
  0
VERTEX
  8
AM_VIS
  5
485
 10
15.8476
 20
4.03119
 30
0.000000
  70
    32
  0
VERTEX
  8
AM_VIS
  5
486
 10
15.8474
 20
4.03122
 30
0.000000
  70
    32
  0
VERTEX
  8
AM_VIS
  5
487
 10
15.8473
 20
4.03125
 30
0.000000
  70
    32
  0
VERTEX
  8
AM_VIS
  5
488
 10
15.8472
 20
4.03128
 30
0.000000
  70
    32
  0
VERTEX
  8
AM_VIS
  5
489
 10
15.8471
 20
4.03131
 30
0.000000
  70
    32
  0
VERTEX
  8
AM_VIS
  5
48A
 10
15.8470
 20
4.03135
 30
0.000000
  70
    32
  0
VERTEX
  8
AM_VIS
  5
48B
 10
15.8469
 20
4.03138
 30
0.000000
  70
    32
  0
VERTEX
  8
AM_VIS
  5
48C
 10
15.8468
 20
4.03141
 30
0.000000
  70
    32
  0
VERTEX
  8
AM_VIS
  5
48D
 10
15.8467
 20
4.03145
 30
0.000000
  70
    32
  0
VERTEX
  8
AM_VIS
  5
48E
 10
15.8466
 20
4.03149
 30
0.000000
  70
    32
  0
VERTEX
  8
AM_VIS
  5
48F
 10
15.8465
 20
4.03152
 30
0.000000
  70
    32
  0
VERTEX
  8
AM_VIS
  5
490
 10
15.8464
 20
4.03156
 30
0.000000
  70
    32
  0
VERTEX
  8
AM_VIS
  5
491
 10
15.8462
 20
4.03160
 30
0.000000
  70
    32
  0
VERTEX
  8
AM_VIS
  5
492
 10
15.8461
 20
4.03164
 30
0.000000
  70
    32
  0
VERTEX
  8
AM_VIS
  5
493
 10
15.8460
 20
4.03168
 30
0.000000
  70
    32
  0
VERTEX
  8
AM_VIS
  5
494
 10
15.8459
 20
4.03173
 30
0.000000
  70
    32
  0
VERTEX
  8
AM_VIS
  5
495
 10
15.8458
 20
4.03177
 30
0.000000
  70
    32
  0
VERTEX
  8
AM_VIS
  5
496
 10
15.8457
 20
4.03181
 30
0.000000
  70
    32
  0
VERTEX
  8
AM_VIS
  5
497
 10
15.8456
 20
4.03186
 30
0.000000
  70
    32
  0
VERTEX
  8
AM_VIS
  5
498
 10
15.8455
 20
4.03191
 30
0.000000
  70
    32
  0
VERTEX
  8
AM_VIS
  5
499
 10
15.8454
 20
4.03195
 30
0.000000
  70
    32
  0
VERTEX
  8
AM_VIS
  5
49A
 10
15.8453
 20
4.03200
 30
0.000000
  70
    32
  0
VERTEX
  8
AM_VIS
  5
49B
 10
15.8451
 20
4.03205
 30
0.000000
  70
    32
  0
VERTEX
  8
AM_VIS
  5
49C
 10
15.8450
 20
4.03210
 30
0.000000
  70
    32
  0
VERTEX
  8
AM_VIS
  5
49D
 10
15.8449
 20
4.03215
 30
0.000000
  70
    32
  0
VERTEX
  8
AM_VIS
  5
49E
 10
15.8448
 20
4.03220
 30
0.000000
  70
    32
  0
VERTEX
  8
AM_VIS
  5
49F
 10
15.8447
 20
4.03226
 30
0.000000
  70
    32
  0
VERTEX
  8
AM_VIS
  5
4A0
 10
15.8446
 20
4.03231
 30
0.000000
  70
    32
  0
VERTEX
  8
AM_VIS
  5
4A1
 10
15.8445
 20
4.03237
 30
0.000000
  70
    32
  0
VERTEX
  8
AM_VIS
  5
4A2
 10
15.8444
 20
4.03242
 30
0.000000
  70
    32
  0
VERTEX
  8
AM_VIS
  5
4A3
 10
15.8442
 20
4.03248
 30
0.000000
  70
    32
  0
VERTEX
  8
AM_VIS
  5
4A4
 10
15.8441
 20
4.03254
 30
0.000000
  70
    32
  0
VERTEX
  8
AM_VIS
  5
4A5
 10
15.8440
 20
4.03260
 30
0.000000
  70
    32
  0
VERTEX
  8
AM_VIS
  5
4A6
 10
15.8439
 20
4.03266
 30
0.000000
  70
    32
  0
VERTEX
  8
AM_VIS
  5
4A7
 10
15.8438
 20
4.03272
 30
0.000000
  70
    32
  0
VERTEX
  8
AM_VIS
  5
4A8
 10
15.8437
 20
4.03278
 30
0.000000
  70
    32
  0
VERTEX
  8
AM_VIS
  5
4A9
 10
15.8436
 20
4.03285
 30
0.000000
  70
    32
  0
VERTEX
  8
AM_VIS
  5
4AA
 10
15.8435
 20
4.03291
 30
0.000000
  70
    32
  0
VERTEX
  8
AM_VIS
  5
4AB
 10
15.8433
 20
4.03298
 30
0.000000
  70
    32
  0
VERTEX
  8
AM_VIS
  5
4AC
 10
15.8432
 20
4.03305
 30
0.000000
  70
    32
  0
VERTEX
  8
AM_VIS
  5
4AD
 10
15.8431
 20
4.03311
 30
0.000000
  70
    32
  0
VERTEX
  8
AM_VIS
  5
4AE
 10
15.8430
 20
4.03318
 30
0.000000
  70
    32
  0
VERTEX
  8
AM_VIS
  5
4AF
 10
15.8429
 20
4.03325
 30
0.000000
  70
    32
  0
VERTEX
  8
AM_VIS
  5
4B0
 10
15.8428
 20
4.03333
 30
0.000000
  70
    32
  0
VERTEX
  8
AM_VIS
  5
4B1
 10
15.8427
 20
4.03340
 30
0.000000
  70
    32
  0
VERTEX
  8
AM_VIS
  5
4B2
 10
15.8426
 20
4.03347
 30
0.000000
  70
    32
  0
VERTEX
  8
AM_VIS
  5
4B3
 10
15.8424
 20
4.03355
 30
0.000000
  70
    32
  0
VERTEX
  8
AM_VIS
  5
4B4
 10
15.8423
 20
4.03362
 30
0.000000
  70
    32
  0
VERTEX
  8
AM_VIS
  5
4B5
 10
15.8422
 20
4.03370
 30
0.000000
  70
    32
  0
VERTEX
  8
AM_VIS
  5
4B6
 10
15.8421
 20
4.03378
 30
0.000000
  70
    32
  0
VERTEX
  8
AM_VIS
  5
4B7
 10
15.8420
 20
4.03386
 30
0.000000
  70
    32
  0
VERTEX
  8
AM_VIS
  5
4B8
 10
15.8419
 20
4.03394
 30
0.000000
  70
    32
  0
VERTEX
  8
AM_VIS
  5
4B9
 10
15.8418
 20
4.03402
 30
0.000000
  70
    32
  0
VERTEX
  8
AM_VIS
  5
4BA
 10
15.8417
 20
4.03411
 30
0.000000
  70
    32
  0
VERTEX
  8
AM_VIS
  5
4BB
 10
15.8415
 20
4.03419
 30
0.000000
  70
    32
  0
VERTEX
  8
AM_VIS
  5
4BC
 10
15.8414
 20
4.03428
 30
0.000000
  70
    32
  0
VERTEX
  8
AM_VIS
  5
4BD
 10
15.8413
 20
4.03436
 30
0.000000
  70
    32
  0
VERTEX
  8
AM_VIS
  5
4BE
 10
15.8412
 20
4.03445
 30
0.000000
  70
    32
  0
VERTEX
  8
AM_VIS
  5
4BF
 10
15.8411
 20
4.03454
 30
0.000000
  70
    32
  0
VERTEX
  8
AM_VIS
  5
4C0
 10
15.8410
 20
4.03463
 30
0.000000
  70
    32
  0
VERTEX
  8
AM_VIS
  5
4C1
 10
15.8409
 20
4.03472
 30
0.000000
  70
    32
  0
VERTEX
  8
AM_VIS
  5
4C2
 10
15.8407
 20
4.03482
 30
0.000000
  70
    32
  0
VERTEX
  8
AM_VIS
  5
4C3
 10
15.8406
 20
4.03491
 30
0.000000
  70
    32
  0
VERTEX
  8
AM_VIS
  5
4C4
 10
15.8405
 20
4.03501
 30
0.000000
  70
    32
  0
VERTEX
  8
AM_VIS
  5
4C5
 10
15.8404
 20
4.03510
 30
0.000000
  70
    32
  0
VERTEX
  8
AM_VIS
  5
4C6
 10
15.8403
 20
4.03520
 30
0.000000
  70
    32
  0
VERTEX
  8
AM_VIS
  5
4C7
 10
15.8402
 20
4.03530
 30
0.000000
  70
    32
  0
VERTEX
  8
AM_VIS
  5
4C8
 10
15.8401
 20
4.03540
 30
0.000000
  70
    32
  0
VERTEX
  8
AM_VIS
  5
4C9
 10
15.8399
 20
4.03550
 30
0.000000
  70
    32
  0
VERTEX
  8
AM_VIS
  5
4CA
 10
15.8398
 20
4.03560
 30
0.000000
  70
    32
  0
VERTEX
  8
AM_VIS
  5
4CB
 10
15.8397
 20
4.03571
 30
0.000000
  70
    32
  0
VERTEX
  8
AM_VIS
  5
4CC
 10
15.8396
 20
4.03581
 30
0.000000
  70
    32
  0
VERTEX
  8
AM_VIS
  5
4CD
 10
15.8395
 20
4.03592
 30
0.000000
  70
    32
  0
VERTEX
  8
AM_VIS
  5
4CE
 10
15.8394
 20
4.03603
 30
0.000000
  70
    32
  0
VERTEX
  8
AM_VIS
  5
4CF
 10
15.8393
 20
4.03614
 30
0.000000
  70
    32
  0
VERTEX
  8
AM_VIS
  5
4D0
 10
15.8391
 20
4.03625
 30
0.000000
  70
    32
  0
VERTEX
  8
AM_VIS
  5
4D1
 10
15.8390
 20
4.03636
 30
0.000000
  70
    32
  0
VERTEX
  8
AM_VIS
  5
4D2
 10
15.8389
 20
4.03647
 30
0.000000
  70
    32
  0
VERTEX
  8
AM_VIS
  5
4D3
 10
15.8388
 20
4.03658
 30
0.000000
  70
    32
  0
VERTEX
  8
AM_VIS
  5
4D4
 10
15.8387
 20
4.03670
 30
0.000000
  70
    32
  0
VERTEX
  8
AM_VIS
  5
4D5
 10
15.8386
 20
4.03681
 30
0.000000
  70
    32
  0
VERTEX
  8
AM_VIS
  5
4D6
 10
15.8385
 20
4.03693
 30
0.000000
  70
    32
  0
VERTEX
  8
AM_VIS
  5
4D7
 10
15.8383
 20
4.03705
 30
0.000000
  70
    32
  0
VERTEX
  8
AM_VIS
  5
4D8
 10
15.8382
 20
4.03717
 30
0.000000
  70
    32
  0
VERTEX
  8
AM_VIS
  5
4D9
 10
15.8381
 20
4.03729
 30
0.000000
  70
    32
  0
VERTEX
  8
AM_VIS
  5
4DA
 10
15.8380
 20
4.03741
 30
0.000000
  70
    32
  0
VERTEX
  8
AM_VIS
  5
4DB
 10
15.8379
 20
4.03754
 30
0.000000
  70
    32
  0
VERTEX
  8
AM_VIS
  5
4DC
 10
15.8378
 20
4.03766
 30
0.000000
  70
    32
  0
VERTEX
  8
AM_VIS
  5
4DD
 10
15.8377
 20
4.03779
 30
0.000000
  70
    32
  0
VERTEX
  8
AM_VIS
  5
4DE
 10
15.8376
 20
4.03792
 30
0.000000
  70
    32
  0
VERTEX
  8
AM_VIS
  5
4DF
 10
15.8374
 20
4.03805
 30
0.000000
  70
    32
  0
VERTEX
  8
AM_VIS
  5
4E0
 10
15.8373
 20
4.03818
 30
0.000000
  70
    32
  0
VERTEX
  8
AM_VIS
  5
4E1
 10
15.8372
 20
4.03831
 30
0.000000
  70
    32
  0
VERTEX
  8
AM_VIS
  5
4E2
 10
15.8371
 20
4.03844
 30
0.000000
  70
    32
  0
VERTEX
  8
AM_VIS
  5
4E3
 10
15.8370
 20
4.03857
 30
0.000000
  70
    32
  0
VERTEX
  8
AM_VIS
  5
4E4
 10
15.8369
 20
4.03871
 30
0.000000
  70
    32
  0
VERTEX
  8
AM_VIS
  5
4E5
 10
15.8368
 20
4.03884
 30
0.000000
  70
    32
  0
VERTEX
  8
AM_VIS
  5
4E6
 10
15.8367
 20
4.03898
 30
0.000000
  70
    32
  0
VERTEX
  8
AM_VIS
  5
4E7
 10
15.8365
 20
4.03912
 30
0.000000
  70
    32
  0
VERTEX
  8
AM_VIS
  5
4E8
 10
15.8364
 20
4.03926
 30
0.000000
  70
    32
  0
VERTEX
  8
AM_VIS
  5
4E9
 10
15.8363
 20
4.03940
 30
0.000000
  70
    32
  0
VERTEX
  8
AM_VIS
  5
4EA
 10
15.8362
 20
4.03955
 30
0.000000
  70
    32
  0
VERTEX
  8
AM_VIS
  5
4EB
 10
15.8361
 20
4.03969
 30
0.000000
  70
    32
  0
VERTEX
  8
AM_VIS
  5
4EC
 10
15.8360
 20
4.03984
 30
0.000000
  70
    32
  0
VERTEX
  8
AM_VIS
  5
4ED
 10
15.8359
 20
4.03998
 30
0.000000
  70
    32
  0
VERTEX
  8
AM_VIS
  5
4EE
 10
15.8358
 20
4.04013
 30
0.000000
  70
    32
  0
VERTEX
  8
AM_VIS
  5
4EF
 10
15.8357
 20
4.04028
 30
0.000000
  70
    32
  0
VERTEX
  8
AM_VIS
  5
4F0
 10
15.8355
 20
4.04043
 30
0.000000
  70
    32
  0
VERTEX
  8
AM_VIS
  5
4F1
 10
15.8354
 20
4.04058
 30
0.000000
  70
    32
  0
VERTEX
  8
AM_VIS
  5
4F2
 10
15.8353
 20
4.04074
 30
0.000000
  70
    32
  0
VERTEX
  8
AM_VIS
  5
4F3
 10
15.8352
 20
4.04089
 30
0.000000
  70
    32
  0
VERTEX
  8
AM_VIS
  5
4F4
 10
15.8351
 20
4.04105
 30
0.000000
  70
    32
  0
VERTEX
  8
AM_VIS
  5
4F5
 10
15.8350
 20
4.04121
 30
0.000000
  70
    32
  0
VERTEX
  8
AM_VIS
  5
4F6
 10
15.8349
 20
4.04136
 30
0.000000
  70
    32
  0
VERTEX
  8
AM_VIS
  5
4F7
 10
15.8348
 20
4.04153
 30
0.000000
  70
    32
  0
VERTEX
  8
AM_VIS
  5
4F8
 10
15.8347
 20
4.04169
 30
0.000000
  70
    32
  0
VERTEX
  8
AM_VIS
  5
4F9
 10
15.8345
 20
4.04185
 30
0.000000
  70
    32
  0
VERTEX
  8
AM_VIS
  5
4FA
 10
15.8344
 20
4.04201
 30
0.000000
  70
    32
  0
VERTEX
  8
AM_VIS
  5
4FB
 10
15.8343
 20
4.04218
 30
0.000000
  70
    32
  0
VERTEX
  8
AM_VIS
  5
4FC
 10
15.8342
 20
4.04235
 30
0.000000
  70
    32
  0
VERTEX
  8
AM_VIS
  5
4FD
 10
15.8341
 20
4.04252
 30
0.000000
  70
    32
  0
VERTEX
  8
AM_VIS
  5
4FE
 10
15.8340
 20
4.04269
 30
0.000000
  70
    32
  0
VERTEX
  8
AM_VIS
  5
4FF
 10
15.8339
 20
4.04286
 30
0.000000
  70
    32
  0
VERTEX
  8
AM_VIS
  5
500
 10
15.8338
 20
4.04303
 30
0.000000
  70
    32
  0
VERTEX
  8
AM_VIS
  5
501
 10
15.8337
 20
4.04320
 30
0.000000
  70
    32
  0
VERTEX
  8
AM_VIS
  5
502
 10
15.8336
 20
4.04338
 30
0.000000
  70
    32
  0
VERTEX
  8
AM_VIS
  5
503
 10
15.8334
 20
4.04356
 30
0.000000
  70
    32
  0
VERTEX
  8
AM_VIS
  5
504
 10
15.8333
 20
4.04373
 30
0.000000
  70
    32
  0
VERTEX
  8
AM_VIS
  5
505
 10
15.8332
 20
4.04391
 30
0.000000
  70
    32
  0
VERTEX
  8
AM_VIS
  5
506
 10
15.8331
 20
4.04409
 30
0.000000
  70
    32
  0
VERTEX
  8
AM_VIS
  5
507
 10
15.8330
 20
4.04428
 30
0.000000
  70
    32
  0
VERTEX
  8
AM_VIS
  5
508
 10
15.8329
 20
4.04446
 30
0.000000
  70
    32
  0
VERTEX
  8
AM_VIS
  5
509
 10
15.8328
 20
4.04465
 30
0.000000
  70
    32
  0
VERTEX
  8
AM_VIS
  5
50A
 10
15.8327
 20
4.04483
 30
0.000000
  70
    32
  0
VERTEX
  8
AM_VIS
  5
50B
 10
15.8326
 20
4.04502
 30
0.000000
  70
    32
  0
VERTEX
  8
AM_VIS
  5
50C
 10
15.8325
 20
4.04521
 30
0.000000
  70
    32
  0
VERTEX
  8
AM_VIS
  5
50D
 10
15.8324
 20
4.04540
 30
0.000000
  70
    32
  0
VERTEX
  8
AM_VIS
  5
50E
 10
15.8323
 20
4.04559
 30
0.000000
  70
    32
  0
VERTEX
  8
AM_VIS
  5
50F
 10
15.8322
 20
4.04579
 30
0.000000
  70
    32
  0
VERTEX
  8
AM_VIS
  5
510
 10
15.8320
 20
4.04598
 30
0.000000
  70
    32
  0
VERTEX
  8
AM_VIS
  5
511
 10
15.8319
 20
4.04618
 30
0.000000
  70
    32
  0
VERTEX
  8
AM_VIS
  5
512
 10
15.8318
 20
4.04638
 30
0.000000
  70
    32
  0
VERTEX
  8
AM_VIS
  5
513
 10
15.8317
 20
4.04658
 30
0.000000
  70
    32
  0
VERTEX
  8
AM_VIS
  5
514
 10
15.8316
 20
4.04678
 30
0.000000
  70
    32
  0
VERTEX
  8
AM_VIS
  5
515
 10
15.8315
 20
4.04698
 30
0.000000
  70
    32
  0
VERTEX
  8
AM_VIS
  5
516
 10
15.8314
 20
4.04718
 30
0.000000
  70
    32
  0
VERTEX
  8
AM_VIS
  5
517
 10
15.8313
 20
4.04739
 30
0.000000
  70
    32
  0
VERTEX
  8
AM_VIS
  5
518
 10
15.8312
 20
4.04760
 30
0.000000
  70
    32
  0
VERTEX
  8
AM_VIS
  5
519
 10
15.8311
 20
4.04781
 30
0.000000
  70
    32
  0
VERTEX
  8
AM_VIS
  5
51A
 10
15.8310
 20
4.04802
 30
0.000000
  70
    32
  0
VERTEX
  8
AM_VIS
  5
51B
 10
15.8309
 20
4.04823
 30
0.000000
  70
    32
  0
VERTEX
  8
AM_VIS
  5
51C
 10
15.8308
 20
4.04844
 30
0.000000
  70
    32
  0
VERTEX
  8
AM_VIS
  5
51D
 10
15.8307
 20
4.04865
 30
0.000000
  70
    32
  0
VERTEX
  8
AM_VIS
  5
51E
 10
15.8306
 20
4.04887
 30
0.000000
  70
    32
  0
VERTEX
  8
AM_VIS
  5
51F
 10
15.8305
 20
4.04909
 30
0.000000
  70
    32
  0
VERTEX
  8
AM_VIS
  5
520
 10
15.8304
 20
4.04931
 30
0.000000
  70
    32
  0
VERTEX
  8
AM_VIS
  5
521
 10
15.8302
 20
4.04953
 30
0.000000
  70
    32
  0
VERTEX
  8
AM_VIS
  5
522
 10
15.8301
 20
4.04975
 30
0.000000
  70
    32
  0
VERTEX
  8
AM_VIS
  5
523
 10
15.8300
 20
4.04997
 30
0.000000
  70
    32
  0
VERTEX
  8
AM_VIS
  5
524
 10
15.8299
 20
4.05020
 30
0.000000
  70
    32
  0
VERTEX
  8
AM_VIS
  5
525
 10
15.8298
 20
4.05042
 30
0.000000
  70
    32
  0
VERTEX
  8
AM_VIS
  5
526
 10
15.8297
 20
4.05065
 30
0.000000
  70
    32
  0
VERTEX
  8
AM_VIS
  5
527
 10
15.8296
 20
4.05088
 30
0.000000
  70
    32
  0
VERTEX
  8
AM_VIS
  5
528
 10
15.8295
 20
4.05111
 30
0.000000
  70
    32
  0
VERTEX
  8
AM_VIS
  5
529
 10
15.8294
 20
4.05134
 30
0.000000
  70
    32
  0
VERTEX
  8
AM_VIS
  5
52A
 10
15.8293
 20
4.05157
 30
0.000000
  70
    32
  0
VERTEX
  8
AM_VIS
  5
52B
 10
15.8292
 20
4.05181
 30
0.000000
  70
    32
  0
VERTEX
  8
AM_VIS
  5
52C
 10
15.8291
 20
4.05204
 30
0.000000
  70
    32
  0
VERTEX
  8
AM_VIS
  5
52D
 10
15.8290
 20
4.05228
 30
0.000000
  70
    32
  0
VERTEX
  8
AM_VIS
  5
52E
 10
15.8289
 20
4.05251
 30
0.000000
  70
    32
  0
VERTEX
  8
AM_VIS
  5
52F
 10
15.8288
 20
4.05275
 30
0.000000
  70
    32
  0
VERTEX
  8
AM_VIS
  5
530
 10
15.8287
 20
4.05299
 30
0.000000
  70
    32
  0
VERTEX
  8
AM_VIS
  5
531
 10
15.8286
 20
4.05323
 30
0.000000
  70
    32
  0
VERTEX
  8
AM_VIS
  5
532
 10
15.8285
 20
4.05347
 30
0.000000
  70
    32
  0
VERTEX
  8
AM_VIS
  5
533
 10
15.8284
 20
4.05372
 30
0.000000
  70
    32
  0
VERTEX
  8
AM_VIS
  5
534
 10
15.8283
 20
4.05396
 30
0.000000
  70
    32
  0
VERTEX
  8
AM_VIS
  5
535
 10
15.8282
 20
4.05421
 30
0.000000
  70
    32
  0
VERTEX
  8
AM_VIS
  5
536
 10
15.8281
 20
4.05445
 30
0.000000
  70
    32
  0
VERTEX
  8
AM_VIS
  5
537
 10
15.8280
 20
4.05470
 30
0.000000
  70
    32
  0
VERTEX
  8
AM_VIS
  5
538
 10
15.8279
 20
4.05495
 30
0.000000
  70
    32
  0
SEQEND
  8
AM_VIS
  5
539
  0
LINE
  5
27
  8
AM_VIS
 10
14.228158179178889
 20
5.6774327028603881
 30
0.0
 11
15.876995400174669
 21
5.6774327028603881
 31
0.0
  0
LINE
  5
28
  8
AM_VIS
 10
15.876995400174669
 20
5.677432702339102
 30
0.0
 11
15.8851531792494
 21
5.677432702339102
 31
0.0
  0
LINE
  5
29
  8
AM_VIS
 10
16.019158179179112
 20
5.5220484522811031
 30
0.0
 11
16.019158179179112
 21
5.4509154105311426
 31
0.0
  0
ARC
  5
2A
  8
AM_VIS
 10
16.064158179178339
 20
5.6963327028596771
 30
0.0
 40
0.179999999999154
 50
186.0271665609543
 51
255.52248781418541
  0
LINE
  5
2B
  8
AM_VIS
 10
16.019158179178898
 20
5.4509154105311426
 30
0.0
 11
16.019158179178898
 21
4.9967499951896333
 31
0.0
  0
ARC
  5
2C
  8
AM_VIS
 10
16.0641581791789
 20
4.7513327028603882
 30
0.0
 40
0.1800000000000003
 50
104.4775121859299
 51
179.99999999999989
  0
LINE
  5
2D
  8
AM_VIS
 10
16.019158179179112
 20
4.9967499951896333
 30
0.0
 11
16.019158179179112
 21
4.9256169534396719
 31
0.0
  0
ARC
  5
2E
  8
AM_HID
 10
16.489820795458002
 20
5.2288236149605973
 30
0.0
 40
0.7497558227829269
 50
180.3814134309674
 51
197.86249115412579
  0
ARC
  5
31
  8
AM_HID
 10
16.48982079545797
 20
5.218841790760183
 30
0.0
 40
0.7497558227829001
 50
162.1375088458739
 51
179.618586569033
  0
POLYLINE
  8
AM_VIS
  5
53A
  66
     1
 10
0.000000
 20
0.000000
 30
0.000000
  70
     8
  0
VERTEX
  8
AM_VIS
  5
53B
 10
15.8279
 20
3.45512
 30
0.000000
  70
    32
  0
VERTEX
  8
AM_VIS
  5
53C
 10
15.8280
 20
3.45535
 30
0.000000
  70
    32
  0
VERTEX
  8
AM_VIS
  5
53D
 10
15.8281
 20
3.45559
 30
0.000000
  70
    32
  0
VERTEX
  8
AM_VIS
  5
53E
 10
15.8282
 20
3.45582
 30
0.000000
  70
    32
  0
VERTEX
  8
AM_VIS
  5
53F
 10
15.8283
 20
3.45605
 30
0.000000
  70
    32
  0
VERTEX
  8
AM_VIS
  5
540
 10
15.8284
 20
3.45629
 30
0.000000
  70
    32
  0
VERTEX
  8
AM_VIS
  5
541
 10
15.8285
 20
3.45652
 30
0.000000
  70
    32
  0
VERTEX
  8
AM_VIS
  5
542
 10
15.8286
 20
3.45675
 30
0.000000
  70
    32
  0
VERTEX
  8
AM_VIS
  5
543
 10
15.8287
 20
3.45698
 30
0.000000
  70
    32
  0
VERTEX
  8
AM_VIS
  5
544
 10
15.8288
 20
3.45720
 30
0.000000
  70
    32
  0
VERTEX
  8
AM_VIS
  5
545
 10
15.8289
 20
3.45743
 30
0.000000
  70
    32
  0
VERTEX
  8
AM_VIS
  5
546
 10
15.8290
 20
3.45765
 30
0.000000
  70
    32
  0
VERTEX
  8
AM_VIS
  5
547
 10
15.8291
 20
3.45788
 30
0.000000
  70
    32
  0
VERTEX
  8
AM_VIS
  5
548
 10
15.8292
 20
3.45810
 30
0.000000
  70
    32
  0
VERTEX
  8
AM_VIS
  5
549
 10
15.8292
 20
3.45833
 30
0.000000
  70
    32
  0
VERTEX
  8
AM_VIS
  5
54A
 10
15.8293
 20
3.45855
 30
0.000000
  70
    32
  0
VERTEX
  8
AM_VIS
  5
54B
 10
15.8294
 20
3.45877
 30
0.000000
  70
    32
  0
VERTEX
  8
AM_VIS
  5
54C
 10
15.8295
 20
3.45898
 30
0.000000
  70
    32
  0
VERTEX
  8
AM_VIS
  5
54D
 10
15.8296
 20
3.45920
 30
0.000000
  70
    32
  0
VERTEX
  8
AM_VIS
  5
54E
 10
15.8297
 20
3.45942
 30
0.000000
  70
    32
  0
VERTEX
  8
AM_VIS
  5
54F
 10
15.8298
 20
3.45963
 30
0.000000
  70
    32
  0
VERTEX
  8
AM_VIS
  5
550
 10
15.8299
 20
3.45984
 30
0.000000
  70
    32
  0
VERTEX
  8
AM_VIS
  5
551
 10
15.8300
 20
3.46006
 30
0.000000
  70
    32
  0
VERTEX
  8
AM_VIS
  5
552
 10
15.8301
 20
3.46027
 30
0.000000
  70
    32
  0
VERTEX
  8
AM_VIS
  5
553
 10
15.8302
 20
3.46048
 30
0.000000
  70
    32
  0
VERTEX
  8
AM_VIS
  5
554
 10
15.8303
 20
3.46068
 30
0.000000
  70
    32
  0
VERTEX
  8
AM_VIS
  5
555
 10
15.8304
 20
3.46089
 30
0.000000
  70
    32
  0
VERTEX
  8
AM_VIS
  5
556
 10
15.8305
 20
3.46110
 30
0.000000
  70
    32
  0
VERTEX
  8
AM_VIS
  5
557
 10
15.8306
 20
3.46130
 30
0.000000
  70
    32
  0
VERTEX
  8
AM_VIS
  5
558
 10
15.8307
 20
3.46150
 30
0.000000
  70
    32
  0
VERTEX
  8
AM_VIS
  5
559
 10
15.8308
 20
3.46170
 30
0.000000
  70
    32
  0
VERTEX
  8
AM_VIS
  5
55A
 10
15.8309
 20
3.46190
 30
0.000000
  70
    32
  0
VERTEX
  8
AM_VIS
  5
55B
 10
15.8310
 20
3.46210
 30
0.000000
  70
    32
  0
VERTEX
  8
AM_VIS
  5
55C
 10
15.8311
 20
3.46230
 30
0.000000
  70
    32
  0
VERTEX
  8
AM_VIS
  5
55D
 10
15.8312
 20
3.46250
 30
0.000000
  70
    32
  0
VERTEX
  8
AM_VIS
  5
55E
 10
15.8313
 20
3.46269
 30
0.000000
  70
    32
  0
VERTEX
  8
AM_VIS
  5
55F
 10
15.8314
 20
3.46289
 30
0.000000
  70
    32
  0
VERTEX
  8
AM_VIS
  5
560
 10
15.8315
 20
3.46308
 30
0.000000
  70
    32
  0
VERTEX
  8
AM_VIS
  5
561
 10
15.8316
 20
3.46327
 30
0.000000
  70
    32
  0
VERTEX
  8
AM_VIS
  5
562
 10
15.8317
 20
3.46346
 30
0.000000
  70
    32
  0
VERTEX
  8
AM_VIS
  5
563
 10
15.8318
 20
3.46365
 30
0.000000
  70
    32
  0
VERTEX
  8
AM_VIS
  5
564
 10
15.8319
 20
3.46384
 30
0.000000
  70
    32
  0
VERTEX
  8
AM_VIS
  5
565
 10
15.8320
 20
3.46402
 30
0.000000
  70
    32
  0
VERTEX
  8
AM_VIS
  5
566
 10
15.8321
 20
3.46421
 30
0.000000
  70
    32
  0
VERTEX
  8
AM_VIS
  5
567
 10
15.8322
 20
3.46439
 30
0.000000
  70
    32
  0
VERTEX
  8
AM_VIS
  5
568
 10
15.8323
 20
3.46457
 30
0.000000
  70
    32
  0
VERTEX
  8
AM_VIS
  5
569
 10
15.8324
 20
3.46475
 30
0.000000
  70
    32
  0
VERTEX
  8
AM_VIS
  5
56A
 10
15.8325
 20
3.46493
 30
0.000000
  70
    32
  0
VERTEX
  8
AM_VIS
  5
56B
 10
15.8326
 20
3.46511
 30
0.000000
  70
    32
  0
VERTEX
  8
AM_VIS
  5
56C
 10
15.8327
 20
3.46529
 30
0.000000
  70
    32
  0
VERTEX
  8
AM_VIS
  5
56D
 10
15.8328
 20
3.46547
 30
0.000000
  70
    32
  0
VERTEX
  8
AM_VIS
  5
56E
 10
15.8329
 20
3.46564
 30
0.000000
  70
    32
  0
VERTEX
  8
AM_VIS
  5
56F
 10
15.8330
 20
3.46582
 30
0.000000
  70
    32
  0
VERTEX
  8
AM_VIS
  5
570
 10
15.8331
 20
3.46599
 30
0.000000
  70
    32
  0
VERTEX
  8
AM_VIS
  5
571
 10
15.8332
 20
3.46616
 30
0.000000
  70
    32
  0
VERTEX
  8
AM_VIS
  5
572
 10
15.8333
 20
3.46633
 30
0.000000
  70
    32
  0
VERTEX
  8
AM_VIS
  5
573
 10
15.8334
 20
3.46650
 30
0.000000
  70
    32
  0
VERTEX
  8
AM_VIS
  5
574
 10
15.8335
 20
3.46667
 30
0.000000
  70
    32
  0
VERTEX
  8
AM_VIS
  5
575
 10
15.8336
 20
3.46683
 30
0.000000
  70
    32
  0
VERTEX
  8
AM_VIS
  5
576
 10
15.8338
 20
3.46700
 30
0.000000
  70
    32
  0
VERTEX
  8
AM_VIS
  5
577
 10
15.8339
 20
3.46716
 30
0.000000
  70
    32
  0
VERTEX
  8
AM_VIS
  5
578
 10
15.8340
 20
3.46733
 30
0.000000
  70
    32
  0
VERTEX
  8
AM_VIS
  5
579
 10
15.8341
 20
3.46749
 30
0.000000
  70
    32
  0
VERTEX
  8
AM_VIS
  5
57A
 10
15.8342
 20
3.46765
 30
0.000000
  70
    32
  0
VERTEX
  8
AM_VIS
  5
57B
 10
15.8343
 20
3.46781
 30
0.000000
  70
    32
  0
VERTEX
  8
AM_VIS
  5
57C
 10
15.8344
 20
3.46797
 30
0.000000
  70
    32
  0
VERTEX
  8
AM_VIS
  5
57D
 10
15.8345
 20
3.46812
 30
0.000000
  70
    32
  0
VERTEX
  8
AM_VIS
  5
57E
 10
15.8346
 20
3.46828
 30
0.000000
  70
    32
  0
VERTEX
  8
AM_VIS
  5
57F
 10
15.8347
 20
3.46843
 30
0.000000
  70
    32
  0
VERTEX
  8
AM_VIS
  5
580
 10
15.8348
 20
3.46859
 30
0.000000
  70
    32
  0
VERTEX
  8
AM_VIS
  5
581
 10
15.8349
 20
3.46874
 30
0.000000
  70
    32
  0
VERTEX
  8
AM_VIS
  5
582
 10
15.8350
 20
3.46889
 30
0.000000
  70
    32
  0
VERTEX
  8
AM_VIS
  5
583
 10
15.8351
 20
3.46904
 30
0.000000
  70
    32
  0
VERTEX
  8
AM_VIS
  5
584
 10
15.8352
 20
3.46919
 30
0.000000
  70
    32
  0
VERTEX
  8
AM_VIS
  5
585
 10
15.8353
 20
3.46933
 30
0.000000
  70
    32
  0
VERTEX
  8
AM_VIS
  5
586
 10
15.8354
 20
3.46948
 30
0.000000
  70
    32
  0
VERTEX
  8
AM_VIS
  5
587
 10
15.8355
 20
3.46962
 30
0.000000
  70
    32
  0
VERTEX
  8
AM_VIS
  5
588
 10
15.8356
 20
3.46977
 30
0.000000
  70
    32
  0
VERTEX
  8
AM_VIS
  5
589
 10
15.8357
 20
3.46991
 30
0.000000
  70
    32
  0
VERTEX
  8
AM_VIS
  5
58A
 10
15.8359
 20
3.47005
 30
0.000000
  70
    32
  0
VERTEX
  8
AM_VIS
  5
58B
 10
15.8360
 20
3.47019
 30
0.000000
  70
    32
  0
VERTEX
  8
AM_VIS
  5
58C
 10
15.8361
 20
3.47033
 30
0.000000
  70
    32
  0
VERTEX
  8
AM_VIS
  5
58D
 10
15.8362
 20
3.47047
 30
0.000000
  70
    32
  0
VERTEX
  8
AM_VIS
  5
58E
 10
15.8363
 20
3.47061
 30
0.000000
  70
    32
  0
VERTEX
  8
AM_VIS
  5
58F
 10
15.8364
 20
3.47074
 30
0.000000
  70
    32
  0
VERTEX
  8
AM_VIS
  5
590
 10
15.8365
 20
3.47088
 30
0.000000
  70
    32
  0
VERTEX
  8
AM_VIS
  5
591
 10
15.8366
 20
3.47101
 30
0.000000
  70
    32
  0
VERTEX
  8
AM_VIS
  5
592
 10
15.8367
 20
3.47114
 30
0.000000
  70
    32
  0
VERTEX
  8
AM_VIS
  5
593
 10
15.8368
 20
3.47127
 30
0.000000
  70
    32
  0
VERTEX
  8
AM_VIS
  5
594
 10
15.8369
 20
3.47140
 30
0.000000
  70
    32
  0
VERTEX
  8
AM_VIS
  5
595
 10
15.8370
 20
3.47153
 30
0.000000
  70
    32
  0
VERTEX
  8
AM_VIS
  5
596
 10
15.8371
 20
3.47166
 30
0.000000
  70
    32
  0
VERTEX
  8
AM_VIS
  5
597
 10
15.8372
 20
3.47178
 30
0.000000
  70
    32
  0
VERTEX
  8
AM_VIS
  5
598
 10
15.8373
 20
3.47191
 30
0.000000
  70
    32
  0
VERTEX
  8
AM_VIS
  5
599
 10
15.8375
 20
3.47203
 30
0.000000
  70
    32
  0
VERTEX
  8
AM_VIS
  5
59A
 10
15.8376
 20
3.47216
 30
0.000000
  70
    32
  0
VERTEX
  8
AM_VIS
  5
59B
 10
15.8377
 20
3.47228
 30
0.000000
  70
    32
  0
VERTEX
  8
AM_VIS
  5
59C
 10
15.8378
 20
3.47240
 30
0.000000
  70
    32
  0
VERTEX
  8
AM_VIS
  5
59D
 10
15.8379
 20
3.47252
 30
0.000000
  70
    32
  0
VERTEX
  8
AM_VIS
  5
59E
 10
15.8380
 20
3.47264
 30
0.000000
  70
    32
  0
VERTEX
  8
AM_VIS
  5
59F
 10
15.8381
 20
3.47275
 30
0.000000
  70
    32
  0
VERTEX
  8
AM_VIS
  5
5A0
 10
15.8382
 20
3.47287
 30
0.000000
  70
    32
  0
VERTEX
  8
AM_VIS
  5
5A1
 10
15.8383
 20
3.47299
 30
0.000000
  70
    32
  0
VERTEX
  8
AM_VIS
  5
5A2
 10
15.8384
 20
3.47310
 30
0.000000
  70
    32
  0
VERTEX
  8
AM_VIS
  5
5A3
 10
15.8385
 20
3.47321
 30
0.000000
  70
    32
  0
VERTEX
  8
AM_VIS
  5
5A4
 10
15.8386
 20
3.47332
 30
0.000000
  70
    32
  0
VERTEX
  8
AM_VIS
  5
5A5
 10
15.8388
 20
3.47343
 30
0.000000
  70
    32
  0
VERTEX
  8
AM_VIS
  5
5A6
 10
15.8389
 20
3.47354
 30
0.000000
  70
    32
  0
VERTEX
  8
AM_VIS
  5
5A7
 10
15.8390
 20
3.47365
 30
0.000000
  70
    32
  0
VERTEX
  8
AM_VIS
  5
5A8
 10
15.8391
 20
3.47375
 30
0.000000
  70
    32
  0
VERTEX
  8
AM_VIS
  5
5A9
 10
15.8392
 20
3.47386
 30
0.000000
  70
    32
  0
VERTEX
  8
AM_VIS
  5
5AA
 10
15.8393
 20
3.47396
 30
0.000000
  70
    32
  0
VERTEX
  8
AM_VIS
  5
5AB
 10
15.8394
 20
3.47407
 30
0.000000
  70
    32
  0
VERTEX
  8
AM_VIS
  5
5AC
 10
15.8395
 20
3.47417
 30
0.000000
  70
    32
  0
VERTEX
  8
AM_VIS
  5
5AD
 10
15.8396
 20
3.47427
 30
0.000000
  70
    32
  0
VERTEX
  8
AM_VIS
  5
5AE
 10
15.8397
 20
3.47437
 30
0.000000
  70
    32
  0
VERTEX
  8
AM_VIS
  5
5AF
 10
15.8398
 20
3.47447
 30
0.000000
  70
    32
  0
VERTEX
  8
AM_VIS
  5
5B0
 10
15.8399
 20
3.47456
 30
0.000000
  70
    32
  0
VERTEX
  8
AM_VIS
  5
5B1
 10
15.8400
 20
3.47466
 30
0.000000
  70
    32
  0
VERTEX
  8
AM_VIS
  5
5B2
 10
15.8402
 20
3.47475
 30
0.000000
  70
    32
  0
VERTEX
  8
AM_VIS
  5
5B3
 10
15.8403
 20
3.47485
 30
0.000000
  70
    32
  0
VERTEX
  8
AM_VIS
  5
5B4
 10
15.8404
 20
3.47494
 30
0.000000
  70
    32
  0
VERTEX
  8
AM_VIS
  5
5B5
 10
15.8405
 20
3.47503
 30
0.000000
  70
    32
  0
VERTEX
  8
AM_VIS
  5
5B6
 10
15.8406
 20
3.47512
 30
0.000000
  70
    32
  0
VERTEX
  8
AM_VIS
  5
5B7
 10
15.8407
 20
3.47521
 30
0.000000
  70
    32
  0
VERTEX
  8
AM_VIS
  5
5B8
 10
15.8408
 20
3.47530
 30
0.000000
  70
    32
  0
VERTEX
  8
AM_VIS
  5
5B9
 10
15.8409
 20
3.47539
 30
0.000000
  70
    32
  0
VERTEX
  8
AM_VIS
  5
5BA
 10
15.8410
 20
3.47547
 30
0.000000
  70
    32
  0
VERTEX
  8
AM_VIS
  5
5BB
 10
15.8411
 20
3.47556
 30
0.000000
  70
    32
  0
VERTEX
  8
AM_VIS
  5
5BC
 10
15.8412
 20
3.47564
 30
0.000000
  70
    32
  0
VERTEX
  8
AM_VIS
  5
5BD
 10
15.8413
 20
3.47572
 30
0.000000
  70
    32
  0
VERTEX
  8
AM_VIS
  5
5BE
 10
15.8414
 20
3.47581
 30
0.000000
  70
    32
  0
VERTEX
  8
AM_VIS
  5
5BF
 10
15.8416
 20
3.47589
 30
0.000000
  70
    32
  0
VERTEX
  8
AM_VIS
  5
5C0
 10
15.8417
 20
3.47597
 30
0.000000
  70
    32
  0
VERTEX
  8
AM_VIS
  5
5C1
 10
15.8418
 20
3.47604
 30
0.000000
  70
    32
  0
VERTEX
  8
AM_VIS
  5
5C2
 10
15.8419
 20
3.47612
 30
0.000000
  70
    32
  0
VERTEX
  8
AM_VIS
  5
5C3
 10
15.8420
 20
3.47620
 30
0.000000
  70
    32
  0
VERTEX
  8
AM_VIS
  5
5C4
 10
15.8421
 20
3.47627
 30
0.000000
  70
    32
  0
VERTEX
  8
AM_VIS
  5
5C5
 10
15.8422
 20
3.47635
 30
0.000000
  70
    32
  0
VERTEX
  8
AM_VIS
  5
5C6
 10
15.8423
 20
3.47642
 30
0.000000
  70
    32
  0
VERTEX
  8
AM_VIS
  5
5C7
 10
15.8424
 20
3.47649
 30
0.000000
  70
    32
  0
VERTEX
  8
AM_VIS
  5
5C8
 10
15.8425
 20
3.47656
 30
0.000000
  70
    32
  0
VERTEX
  8
AM_VIS
  5
5C9
 10
15.8426
 20
3.47663
 30
0.000000
  70
    32
  0
VERTEX
  8
AM_VIS
  5
5CA
 10
15.8427
 20
3.47670
 30
0.000000
  70
    32
  0
VERTEX
  8
AM_VIS
  5
5CB
 10
15.8428
 20
3.47677
 30
0.000000
  70
    32
  0
VERTEX
  8
AM_VIS
  5
5CC
 10
15.8429
 20
3.47684
 30
0.000000
  70
    32
  0
VERTEX
  8
AM_VIS
  5
5CD
 10
15.8431
 20
3.47690
 30
0.000000
  70
    32
  0
VERTEX
  8
AM_VIS
  5
5CE
 10
15.8432
 20
3.47697
 30
0.000000
  70
    32
  0
VERTEX
  8
AM_VIS
  5
5CF
 10
15.8433
 20
3.47703
 30
0.000000
  70
    32
  0
VERTEX
  8
AM_VIS
  5
5D0
 10
15.8434
 20
3.47710
 30
0.000000
  70
    32
  0
VERTEX
  8
AM_VIS
  5
5D1
 10
15.8435
 20
3.47716
 30
0.000000
  70
    32
  0
VERTEX
  8
AM_VIS
  5
5D2
 10
15.8436
 20
3.47722
 30
0.000000
  70
    32
  0
VERTEX
  8
AM_VIS
  5
5D3
 10
15.8437
 20
3.47728
 30
0.000000
  70
    32
  0
VERTEX
  8
AM_VIS
  5
5D4
 10
15.8438
 20
3.47734
 30
0.000000
  70
    32
  0
VERTEX
  8
AM_VIS
  5
5D5
 10
15.8439
 20
3.47740
 30
0.000000
  70
    32
  0
VERTEX
  8
AM_VIS
  5
5D6
 10
15.8440
 20
3.47746
 30
0.000000
  70
    32
  0
VERTEX
  8
AM_VIS
  5
5D7
 10
15.8441
 20
3.47751
 30
0.000000
  70
    32
  0
VERTEX
  8
AM_VIS
  5
5D8
 10
15.8442
 20
3.47757
 30
0.000000
  70
    32
  0
VERTEX
  8
AM_VIS
  5
5D9
 10
15.8443
 20
3.47762
 30
0.000000
  70
    32
  0
VERTEX
  8
AM_VIS
  5
5DA
 10
15.8444
 20
3.47768
 30
0.000000
  70
    32
  0
VERTEX
  8
AM_VIS
  5
5DB
 10
15.8445
 20
3.47773
 30
0.000000
  70
    32
  0
VERTEX
  8
AM_VIS
  5
5DC
 10
15.8446
 20
3.47778
 30
0.000000
  70
    32
  0
VERTEX
  8
AM_VIS
  5
5DD
 10
15.8447
 20
3.47783
 30
0.000000
  70
    32
  0
VERTEX
  8
AM_VIS
  5
5DE
 10
15.8448
 20
3.47788
 30
0.000000
  70
    32
  0
VERTEX
  8
AM_VIS
  5
5DF
 10
15.8450
 20
3.47793
 30
0.000000
  70
    32
  0
VERTEX
  8
AM_VIS
  5
5E0
 10
15.8451
 20
3.47798
 30
0.000000
  70
    32
  0
VERTEX
  8
AM_VIS
  5
5E1
 10
15.8452
 20
3.47803
 30
0.000000
  70
    32
  0
VERTEX
  8
AM_VIS
  5
5E2
 10
15.8453
 20
3.47807
 30
0.000000
  70
    32
  0
VERTEX
  8
AM_VIS
  5
5E3
 10
15.8454
 20
3.47812
 30
0.000000
  70
    32
  0
VERTEX
  8
AM_VIS
  5
5E4
 10
15.8455
 20
3.47816
 30
0.000000
  70
    32
  0
VERTEX
  8
AM_VIS
  5
5E5
 10
15.8456
 20
3.47821
 30
0.000000
  70
    32
  0
VERTEX
  8
AM_VIS
  5
5E6
 10
15.8457
 20
3.47825
 30
0.000000
  70
    32
  0
VERTEX
  8
AM_VIS
  5
5E7
 10
15.8458
 20
3.47829
 30
0.000000
  70
    32
  0
VERTEX
  8
AM_VIS
  5
5E8
 10
15.8459
 20
3.47833
 30
0.000000
  70
    32
  0
VERTEX
  8
AM_VIS
  5
5E9
 10
15.8460
 20
3.47837
 30
0.000000
  70
    32
  0
VERTEX
  8
AM_VIS
  5
5EA
 10
15.8461
 20
3.47841
 30
0.000000
  70
    32
  0
VERTEX
  8
AM_VIS
  5
5EB
 10
15.8462
 20
3.47845
 30
0.000000
  70
    32
  0
VERTEX
  8
AM_VIS
  5
5EC
 10
15.8463
 20
3.47849
 30
0.000000
  70
    32
  0
VERTEX
  8
AM_VIS
  5
5ED
 10
15.8464
 20
3.47852
 30
0.000000
  70
    32
  0
VERTEX
  8
AM_VIS
  5
5EE
 10
15.8465
 20
3.47856
 30
0.000000
  70
    32
  0
VERTEX
  8
AM_VIS
  5
5EF
 10
15.8466
 20
3.47859
 30
0.000000
  70
    32
  0
VERTEX
  8
AM_VIS
  5
5F0
 10
15.8467
 20
3.47863
 30
0.000000
  70
    32
  0
VERTEX
  8
AM_VIS
  5
5F1
 10
15.8468
 20
3.47866
 30
0.000000
  70
    32
  0
VERTEX
  8
AM_VIS
  5
5F2
 10
15.8469
 20
3.47870
 30
0.000000
  70
    32
  0
VERTEX
  8
AM_VIS
  5
5F3
 10
15.8470
 20
3.47873
 30
0.000000
  70
    32
  0
VERTEX
  8
AM_VIS
  5
5F4
 10
15.8471
 20
3.47876
 30
0.000000
  70
    32
  0
VERTEX
  8
AM_VIS
  5
5F5
 10
15.8472
 20
3.47879
 30
0.000000
  70
    32
  0
VERTEX
  8
AM_VIS
  5
5F6
 10
15.8473
 20
3.47882
 30
0.000000
  70
    32
  0
VERTEX
  8
AM_VIS
  5
5F7
 10
15.8474
 20
3.47885
 30
0.000000
  70
    32
  0
VERTEX
  8
AM_VIS
  5
5F8
 10
15.8475
 20
3.47887
 30
0.000000
  70
    32
  0
VERTEX
  8
AM_VIS
  5
5F9
 10
15.8476
 20
3.47890
 30
0.000000
  70
    32
  0
VERTEX
  8
AM_VIS
  5
5FA
 10
15.8478
 20
3.47893
 30
0.000000
  70
    32
  0
VERTEX
  8
AM_VIS
  5
5FB
 10
15.8479
 20
3.47895
 30
0.000000
  70
    32
  0
VERTEX
  8
AM_VIS
  5
5FC
 10
15.8480
 20
3.47898
 30
0.000000
  70
    32
  0
VERTEX
  8
AM_VIS
  5
5FD
 10
15.8481
 20
3.47900
 30
0.000000
  70
    32
  0
VERTEX
  8
AM_VIS
  5
5FE
 10
15.8482
 20
3.47902
 30
0.000000
  70
    32
  0
VERTEX
  8
AM_VIS
  5
5FF
 10
15.8483
 20
3.47905
 30
0.000000
  70
    32
  0
VERTEX
  8
AM_VIS
  5
600
 10
15.8484
 20
3.47907
 30
0.000000
  70
    32
  0
VERTEX
  8
AM_VIS
  5
601
 10
15.8485
 20
3.47909
 30
0.000000
  70
    32
  0
VERTEX
  8
AM_VIS
  5
602
 10
15.8486
 20
3.47911
 30
0.000000
  70
    32
  0
VERTEX
  8
AM_VIS
  5
603
 10
15.8487
 20
3.47913
 30
0.000000
  70
    32
  0
VERTEX
  8
AM_VIS
  5
604
 10
15.8488
 20
3.47915
 30
0.000000
  70
    32
  0
VERTEX
  8
AM_VIS
  5
605
 10
15.8489
 20
3.47917
 30
0.000000
  70
    32
  0
VERTEX
  8
AM_VIS
  5
606
 10
15.8490
 20
3.47918
 30
0.000000
  70
    32
  0
VERTEX
  8
AM_VIS
  5
607
 10
15.8491
 20
3.47920
 30
0.000000
  70
    32
  0
VERTEX
  8
AM_VIS
  5
608
 10
15.8492
 20
3.47922
 30
0.000000
  70
    32
  0
VERTEX
  8
AM_VIS
  5
609
 10
15.8493
 20
3.47923
 30
0.000000
  70
    32
  0
VERTEX
  8
AM_VIS
  5
60A
 10
15.8494
 20
3.47925
 30
0.000000
  70
    32
  0
VERTEX
  8
AM_VIS
  5
60B
 10
15.8495
 20
3.47926
 30
0.000000
  70
    32
  0
VERTEX
  8
AM_VIS
  5
60C
 10
15.8496
 20
3.47927
 30
0.000000
  70
    32
  0
VERTEX
  8
AM_VIS
  5
60D
 10
15.8497
 20
3.47928
 30
0.000000
  70
    32
  0
VERTEX
  8
AM_VIS
  5
60E
 10
15.8498
 20
3.47930
 30
0.000000
  70
    32
  0
VERTEX
  8
AM_VIS
  5
60F
 10
15.8499
 20
3.47931
 30
0.000000
  70
    32
  0
VERTEX
  8
AM_VIS
  5
610
 10
15.8500
 20
3.47932
 30
0.000000
  70
    32
  0
VERTEX
  8
AM_VIS
  5
611
 10
15.8501
 20
3.47933
 30
0.000000
  70
    32
  0
VERTEX
  8
AM_VIS
  5
612
 10
15.8502
 20
3.47934
 30
0.000000
  70
    32
  0
VERTEX
  8
AM_VIS
  5
613
 10
15.8503
 20
3.47934
 30
0.000000
  70
    32
  0
VERTEX
  8
AM_VIS
  5
614
 10
15.8504
 20
3.47935
 30
0.000000
  70
    32
  0
VERTEX
  8
AM_VIS
  5
615
 10
15.8505
 20
3.47936
 30
0.000000
  70
    32
  0
VERTEX
  8
AM_VIS
  5
616
 10
15.8506
 20
3.47937
 30
0.000000
  70
    32
  0
VERTEX
  8
AM_VIS
  5
617
 10
15.8507
 20
3.47937
 30
0.000000
  70
    32
  0
VERTEX
  8
AM_VIS
  5
618
 10
15.8508
 20
3.47938
 30
0.000000
  70
    32
  0
VERTEX
  8
AM_VIS
  5
619
 10
15.8509
 20
3.47938
 30
0.000000
  70
    32
  0
VERTEX
  8
AM_VIS
  5
61A
 10
15.8510
 20
3.47938
 30
0.000000
  70
    32
  0
VERTEX
  8
AM_VIS
  5
61B
 10
15.8510
 20
3.47939
 30
0.000000
  70
    32
  0
VERTEX
  8
AM_VIS
  5
61C
 10
15.8511
 20
3.47939
 30
0.000000
  70
    32
  0
VERTEX
  8
AM_VIS
  5
61D
 10
15.8512
 20
3.47939
 30
0.000000
  70
    32
  0
VERTEX
  8
AM_VIS
  5
61E
 10
15.8513
 20
3.47939
 30
0.000000
  70
    32
  0
VERTEX
  8
AM_VIS
  5
61F
 10
15.8514
 20
3.47939
 30
0.000000
  70
    32
  0
VERTEX
  8
AM_VIS
  5
620
 10
15.8515
 20
3.47939
 30
0.000000
  70
    32
  0
VERTEX
  8
AM_VIS
  5
621
 10
15.8516
 20
3.47939
 30
0.000000
  70
    32
  0
VERTEX
  8
AM_VIS
  5
622
 10
15.8517
 20
3.47939
 30
0.000000
  70
    32
  0
VERTEX
  8
AM_VIS
  5
623
 10
15.8518
 20
3.47939
 30
0.000000
  70
    32
  0
VERTEX
  8
AM_VIS
  5
624
 10
15.8519
 20
3.47939
 30
0.000000
  70
    32
  0
VERTEX
  8
AM_VIS
  5
625
 10
15.8520
 20
3.47939
 30
0.000000
  70
    32
  0
VERTEX
  8
AM_VIS
  5
626
 10
15.8521
 20
3.47938
 30
0.000000
  70
    32
  0
VERTEX
  8
AM_VIS
  5
627
 10
15.8522
 20
3.47938
 30
0.000000
  70
    32
  0
VERTEX
  8
AM_VIS
  5
628
 10
15.8523
 20
3.47937
 30
0.000000
  70
    32
  0
VERTEX
  8
AM_VIS
  5
629
 10
15.8524
 20
3.47937
 30
0.000000
  70
    32
  0
VERTEX
  8
AM_VIS
  5
62A
 10
15.8525
 20
3.47936
 30
0.000000
  70
    32
  0
VERTEX
  8
AM_VIS
  5
62B
 10
15.8526
 20
3.47936
 30
0.000000
  70
    32
  0
VERTEX
  8
AM_VIS
  5
62C
 10
15.8527
 20
3.47935
 30
0.000000
  70
    32
  0
VERTEX
  8
AM_VIS
  5
62D
 10
15.8528
 20
3.47934
 30
0.000000
  70
    32
  0
VERTEX
  8
AM_VIS
  5
62E
 10
15.8529
 20
3.47933
 30
0.000000
  70
    32
  0
VERTEX
  8
AM_VIS
  5
62F
 10
15.8530
 20
3.47932
 30
0.000000
  70
    32
  0
VERTEX
  8
AM_VIS
  5
630
 10
15.8531
 20
3.47932
 30
0.000000
  70
    32
  0
VERTEX
  8
AM_VIS
  5
631
 10
15.8532
 20
3.47931
 30
0.000000
  70
    32
  0
VERTEX
  8
AM_VIS
  5
632
 10
15.8533
 20
3.47930
 30
0.000000
  70
    32
  0
VERTEX
  8
AM_VIS
  5
633
 10
15.8534
 20
3.47928
 30
0.000000
  70
    32
  0
VERTEX
  8
AM_VIS
  5
634
 10
15.8534
 20
3.47927
 30
0.000000
  70
    32
  0
VERTEX
  8
AM_VIS
  5
635
 10
15.8535
 20
3.47926
 30
0.000000
  70
    32
  0
VERTEX
  8
AM_VIS
  5
636
 10
15.8536
 20
3.47925
 30
0.000000
  70
    32
  0
VERTEX
  8
AM_VIS
  5
637
 10
15.8537
 20
3.47924
 30
0.000000
  70
    32
  0
VERTEX
  8
AM_VIS
  5
638
 10
15.8538
 20
3.47922
 30
0.000000
  70
    32
  0
VERTEX
  8
AM_VIS
  5
639
 10
15.8539
 20
3.47921
 30
0.000000
  70
    32
  0
VERTEX
  8
AM_VIS
  5
63A
 10
15.8540
 20
3.47920
 30
0.000000
  70
    32
  0
VERTEX
  8
AM_VIS
  5
63B
 10
15.8541
 20
3.47918
 30
0.000000
  70
    32
  0
VERTEX
  8
AM_VIS
  5
63C
 10
15.8542
 20
3.47917
 30
0.000000
  70
    32
  0
VERTEX
  8
AM_VIS
  5
63D
 10
15.8543
 20
3.47915
 30
0.000000
  70
    32
  0
VERTEX
  8
AM_VIS
  5
63E
 10
15.8544
 20
3.47913
 30
0.000000
  70
    32
  0
VERTEX
  8
AM_VIS
  5
63F
 10
15.8545
 20
3.47912
 30
0.000000
  70
    32
  0
VERTEX
  8
AM_VIS
  5
640
 10
15.8546
 20
3.47910
 30
0.000000
  70
    32
  0
VERTEX
  8
AM_VIS
  5
641
 10
15.8547
 20
3.47908
 30
0.000000
  70
    32
  0
VERTEX
  8
AM_VIS
  5
642
 10
15.8548
 20
3.47906
 30
0.000000
  70
    32
  0
VERTEX
  8
AM_VIS
  5
643
 10
15.8548
 20
3.47904
 30
0.000000
  70
    32
  0
VERTEX
  8
AM_VIS
  5
644
 10
15.8549
 20
3.47903
 30
0.000000
  70
    32
  0
VERTEX
  8
AM_VIS
  5
645
 10
15.8550
 20
3.47901
 30
0.000000
  70
    32
  0
VERTEX
  8
AM_VIS
  5
646
 10
15.8551
 20
3.47899
 30
0.000000
  70
    32
  0
VERTEX
  8
AM_VIS
  5
647
 10
15.8552
 20
3.47897
 30
0.000000
  70
    32
  0
VERTEX
  8
AM_VIS
  5
648
 10
15.8553
 20
3.47894
 30
0.000000
  70
    32
  0
VERTEX
  8
AM_VIS
  5
649
 10
15.8554
 20
3.47892
 30
0.000000
  70
    32
  0
VERTEX
  8
AM_VIS
  5
64A
 10
15.8555
 20
3.47890
 30
0.000000
  70
    32
  0
VERTEX
  8
AM_VIS
  5
64B
 10
15.8556
 20
3.47888
 30
0.000000
  70
    32
  0
VERTEX
  8
AM_VIS
  5
64C
 10
15.8557
 20
3.47886
 30
0.000000
  70
    32
  0
VERTEX
  8
AM_VIS
  5
64D
 10
15.8558
 20
3.47883
 30
0.000000
  70
    32
  0
VERTEX
  8
AM_VIS
  5
64E
 10
15.8558
 20
3.47881
 30
0.000000
  70
    32
  0
VERTEX
  8
AM_VIS
  5
64F
 10
15.8559
 20
3.47878
 30
0.000000
  70
    32
  0
VERTEX
  8
AM_VIS
  5
650
 10
15.8560
 20
3.47876
 30
0.000000
  70
    32
  0
VERTEX
  8
AM_VIS
  5
651
 10
15.8561
 20
3.47874
 30
0.000000
  70
    32
  0
VERTEX
  8
AM_VIS
  5
652
 10
15.8562
 20
3.47871
 30
0.000000
  70
    32
  0
VERTEX
  8
AM_VIS
  5
653
 10
15.8563
 20
3.47868
 30
0.000000
  70
    32
  0
VERTEX
  8
AM_VIS
  5
654
 10
15.8564
 20
3.47866
 30
0.000000
  70
    32
  0
VERTEX
  8
AM_VIS
  5
655
 10
15.8565
 20
3.47863
 30
0.000000
  70
    32
  0
VERTEX
  8
AM_VIS
  5
656
 10
15.8566
 20
3.47860
 30
0.000000
  70
    32
  0
VERTEX
  8
AM_VIS
  5
657
 10
15.8567
 20
3.47858
 30
0.000000
  70
    32
  0
VERTEX
  8
AM_VIS
  5
658
 10
15.8567
 20
3.47855
 30
0.000000
  70
    32
  0
VERTEX
  8
AM_VIS
  5
659
 10
15.8568
 20
3.47852
 30
0.000000
  70
    32
  0
VERTEX
  8
AM_VIS
  5
65A
 10
15.8569
 20
3.47849
 30
0.000000
  70
    32
  0
VERTEX
  8
AM_VIS
  5
65B
 10
15.8570
 20
3.47846
 30
0.000000
  70
    32
  0
VERTEX
  8
AM_VIS
  5
65C
 10
15.8571
 20
3.47843
 30
0.000000
  70
    32
  0
VERTEX
  8
AM_VIS
  5
65D
 10
15.8572
 20
3.47840
 30
0.000000
  70
    32
  0
VERTEX
  8
AM_VIS
  5
65E
 10
15.8573
 20
3.47837
 30
0.000000
  70
    32
  0
VERTEX
  8
AM_VIS
  5
65F
 10
15.8574
 20
3.47834
 30
0.000000
  70
    32
  0
VERTEX
  8
AM_VIS
  5
660
 10
15.8575
 20
3.47831
 30
0.000000
  70
    32
  0
VERTEX
  8
AM_VIS
  5
661
 10
15.8575
 20
3.47828
 30
0.000000
  70
    32
  0
VERTEX
  8
AM_VIS
  5
662
 10
15.8576
 20
3.47825
 30
0.000000
  70
    32
  0
VERTEX
  8
AM_VIS
  5
663
 10
15.8577
 20
3.47821
 30
0.000000
  70
    32
  0
VERTEX
  8
AM_VIS
  5
664
 10
15.8578
 20
3.47818
 30
0.000000
  70
    32
  0
VERTEX
  8
AM_VIS
  5
665
 10
15.8579
 20
3.47815
 30
0.000000
  70
    32
  0
VERTEX
  8
AM_VIS
  5
666
 10
15.8580
 20
3.47812
 30
0.000000
  70
    32
  0
VERTEX
  8
AM_VIS
  5
667
 10
15.8581
 20
3.47808
 30
0.000000
  70
    32
  0
VERTEX
  8
AM_VIS
  5
668
 10
15.8582
 20
3.47805
 30
0.000000
  70
    32
  0
VERTEX
  8
AM_VIS
  5
669
 10
15.8582
 20
3.47801
 30
0.000000
  70
    32
  0
VERTEX
  8
AM_VIS
  5
66A
 10
15.8583
 20
3.47798
 30
0.000000
  70
    32
  0
VERTEX
  8
AM_VIS
  5
66B
 10
15.8584
 20
3.47794
 30
0.000000
  70
    32
  0
VERTEX
  8
AM_VIS
  5
66C
 10
15.8585
 20
3.47791
 30
0.000000
  70
    32
  0
VERTEX
  8
AM_VIS
  5
66D
 10
15.8586
 20
3.47787
 30
0.000000
  70
    32
  0
VERTEX
  8
AM_VIS
  5
66E
 10
15.8587
 20
3.47784
 30
0.000000
  70
    32
  0
VERTEX
  8
AM_VIS
  5
66F
 10
15.8588
 20
3.47780
 30
0.000000
  70
    32
  0
VERTEX
  8
AM_VIS
  5
670
 10
15.8588
 20
3.47776
 30
0.000000
  70
    32
  0
VERTEX
  8
AM_VIS
  5
671
 10
15.8589
 20
3.47772
 30
0.000000
  70
    32
  0
VERTEX
  8
AM_VIS
  5
672
 10
15.8590
 20
3.47769
 30
0.000000
  70
    32
  0
VERTEX
  8
AM_VIS
  5
673
 10
15.8591
 20
3.47765
 30
0.000000
  70
    32
  0
VERTEX
  8
AM_VIS
  5
674
 10
15.8592
 20
3.47761
 30
0.000000
  70
    32
  0
VERTEX
  8
AM_VIS
  5
675
 10
15.8593
 20
3.47757
 30
0.000000
  70
    32
  0
VERTEX
  8
AM_VIS
  5
676
 10
15.8594
 20
3.47753
 30
0.000000
  70
    32
  0
VERTEX
  8
AM_VIS
  5
677
 10
15.8594
 20
3.47749
 30
0.000000
  70
    32
  0
VERTEX
  8
AM_VIS
  5
678
 10
15.8595
 20
3.47745
 30
0.000000
  70
    32
  0
VERTEX
  8
AM_VIS
  5
679
 10
15.8596
 20
3.47742
 30
0.000000
  70
    32
  0
VERTEX
  8
AM_VIS
  5
67A
 10
15.8597
 20
3.47737
 30
0.000000
  70
    32
  0
VERTEX
  8
AM_VIS
  5
67B
 10
15.8598
 20
3.47733
 30
0.000000
  70
    32
  0
VERTEX
  8
AM_VIS
  5
67C
 10
15.8599
 20
3.47729
 30
0.000000
  70
    32
  0
VERTEX
  8
AM_VIS
  5
67D
 10
15.8599
 20
3.47725
 30
0.000000
  70
    32
  0
VERTEX
  8
AM_VIS
  5
67E
 10
15.8600
 20
3.47721
 30
0.000000
  70
    32
  0
VERTEX
  8
AM_VIS
  5
67F
 10
15.8601
 20
3.47717
 30
0.000000
  70
    32
  0
VERTEX
  8
AM_VIS
  5
680
 10
15.8602
 20
3.47713
 30
0.000000
  70
    32
  0
VERTEX
  8
AM_VIS
  5
681
 10
15.8603
 20
3.47709
 30
0.000000
  70
    32
  0
VERTEX
  8
AM_VIS
  5
682
 10
15.8604
 20
3.47704
 30
0.000000
  70
    32
  0
VERTEX
  8
AM_VIS
  5
683
 10
15.8604
 20
3.47700
 30
0.000000
  70
    32
  0
VERTEX
  8
AM_VIS
  5
684
 10
15.8605
 20
3.47696
 30
0.000000
  70
    32
  0
VERTEX
  8
AM_VIS
  5
685
 10
15.8606
 20
3.47691
 30
0.000000
  70
    32
  0
VERTEX
  8
AM_VIS
  5
686
 10
15.8607
 20
3.47687
 30
0.000000
  70
    32
  0
VERTEX
  8
AM_VIS
  5
687
 10
15.8608
 20
3.47683
 30
0.000000
  70
    32
  0
VERTEX
  8
AM_VIS
  5
688
 10
15.8609
 20
3.47678
 30
0.000000
  70
    32
  0
VERTEX
  8
AM_VIS
  5
689
 10
15.8609
 20
3.47674
 30
0.000000
  70
    32
  0
VERTEX
  8
AM_VIS
  5
68A
 10
15.8610
 20
3.47669
 30
0.000000
  70
    32
  0
VERTEX
  8
AM_VIS
  5
68B
 10
15.8611
 20
3.47665
 30
0.000000
  70
    32
  0
VERTEX
  8
AM_VIS
  5
68C
 10
15.8612
 20
3.47660
 30
0.000000
  70
    32
  0
VERTEX
  8
AM_VIS
  5
68D
 10
15.8613
 20
3.47656
 30
0.000000
  70
    32
  0
VERTEX
  8
AM_VIS
  5
68E
 10
15.8613
 20
3.47651
 30
0.000000
  70
    32
  0
VERTEX
  8
AM_VIS
  5
68F
 10
15.8614
 20
3.47647
 30
0.000000
  70
    32
  0
VERTEX
  8
AM_VIS
  5
690
 10
15.8615
 20
3.47642
 30
0.000000
  70
    32
  0
VERTEX
  8
AM_VIS
  5
691
 10
15.8616
 20
3.47637
 30
0.000000
  70
    32
  0
VERTEX
  8
AM_VIS
  5
692
 10
15.8617
 20
3.47633
 30
0.000000
  70
    32
  0
VERTEX
  8
AM_VIS
  5
693
 10
15.8617
 20
3.47628
 30
0.000000
  70
    32
  0
VERTEX
  8
AM_VIS
  5
694
 10
15.8618
 20
3.47623
 30
0.000000
  70
    32
  0
VERTEX
  8
AM_VIS
  5
695
 10
15.8619
 20
3.47619
 30
0.000000
  70
    32
  0
VERTEX
  8
AM_VIS
  5
696
 10
15.8620
 20
3.47614
 30
0.000000
  70
    32
  0
VERTEX
  8
AM_VIS
  5
697
 10
15.8621
 20
3.47609
 30
0.000000
  70
    32
  0
VERTEX
  8
AM_VIS
  5
698
 10
15.8621
 20
3.47604
 30
0.000000
  70
    32
  0
VERTEX
  8
AM_VIS
  5
699
 10
15.8622
 20
3.47600
 30
0.000000
  70
    32
  0
VERTEX
  8
AM_VIS
  5
69A
 10
15.8623
 20
3.47595
 30
0.000000
  70
    32
  0
VERTEX
  8
AM_VIS
  5
69B
 10
15.8624
 20
3.47590
 30
0.000000
  70
    32
  0
VERTEX
  8
AM_VIS
  5
69C
 10
15.8625
 20
3.47585
 30
0.000000
  70
    32
  0
VERTEX
  8
AM_VIS
  5
69D
 10
15.8625
 20
3.47580
 30
0.000000
  70
    32
  0
VERTEX
  8
AM_VIS
  5
69E
 10
15.8626
 20
3.47575
 30
0.000000
  70
    32
  0
VERTEX
  8
AM_VIS
  5
69F
 10
15.8627
 20
3.47570
 30
0.000000
  70
    32
  0
VERTEX
  8
AM_VIS
  5
6A0
 10
15.8628
 20
3.47565
 30
0.000000
  70
    32
  0
VERTEX
  8
AM_VIS
  5
6A1
 10
15.8629
 20
3.47560
 30
0.000000
  70
    32
  0
VERTEX
  8
AM_VIS
  5
6A2
 10
15.8629
 20
3.47555
 30
0.000000
  70
    32
  0
VERTEX
  8
AM_VIS
  5
6A3
 10
15.8630
 20
3.47550
 30
0.000000
  70
    32
  0
VERTEX
  8
AM_VIS
  5
6A4
 10
15.8631
 20
3.47545
 30
0.000000
  70
    32
  0
VERTEX
  8
AM_VIS
  5
6A5
 10
15.8632
 20
3.47540
 30
0.000000
  70
    32
  0
VERTEX
  8
AM_VIS
  5
6A6
 10
15.8632
 20
3.47535
 30
0.000000
  70
    32
  0
VERTEX
  8
AM_VIS
  5
6A7
 10
15.8633
 20
3.47530
 30
0.000000
  70
    32
  0
VERTEX
  8
AM_VIS
  5
6A8
 10
15.8634
 20
3.47524
 30
0.000000
  70
    32
  0
VERTEX
  8
AM_VIS
  5
6A9
 10
15.8635
 20
3.47519
 30
0.000000
  70
    32
  0
VERTEX
  8
AM_VIS
  5
6AA
 10
15.8636
 20
3.47514
 30
0.000000
  70
    32
  0
VERTEX
  8
AM_VIS
  5
6AB
 10
15.8636
 20
3.47509
 30
0.000000
  70
    32
  0
VERTEX
  8
AM_VIS
  5
6AC
 10
15.8637
 20
3.47503
 30
0.000000
  70
    32
  0
VERTEX
  8
AM_VIS
  5
6AD
 10
15.8638
 20
3.47498
 30
0.000000
  70
    32
  0
VERTEX
  8
AM_VIS
  5
6AE
 10
15.8639
 20
3.47493
 30
0.000000
  70
    32
  0
VERTEX
  8
AM_VIS
  5
6AF
 10
15.8639
 20
3.47487
 30
0.000000
  70
    32
  0
VERTEX
  8
AM_VIS
  5
6B0
 10
15.8640
 20
3.47482
 30
0.000000
  70
    32
  0
VERTEX
  8
AM_VIS
  5
6B1
 10
15.8641
 20
3.47477
 30
0.000000
  70
    32
  0
VERTEX
  8
AM_VIS
  5
6B2
 10
15.8642
 20
3.47471
 30
0.000000
  70
    32
  0
VERTEX
  8
AM_VIS
  5
6B3
 10
15.8642
 20
3.47466
 30
0.000000
  70
    32
  0
VERTEX
  8
AM_VIS
  5
6B4
 10
15.8643
 20
3.47460
 30
0.000000
  70
    32
  0
VERTEX
  8
AM_VIS
  5
6B5
 10
15.8644
 20
3.47455
 30
0.000000
  70
    32
  0
VERTEX
  8
AM_VIS
  5
6B6
 10
15.8645
 20
3.47449
 30
0.000000
  70
    32
  0
VERTEX
  8
AM_VIS
  5
6B7
 10
15.8646
 20
3.47444
 30
0.000000
  70
    32
  0
VERTEX
  8
AM_VIS
  5
6B8
 10
15.8646
 20
3.47438
 30
0.000000
  70
    32
  0
VERTEX
  8
AM_VIS
  5
6B9
 10
15.8647
 20
3.47433
 30
0.000000
  70
    32
  0
VERTEX
  8
AM_VIS
  5
6BA
 10
15.8648
 20
3.47427
 30
0.000000
  70
    32
  0
VERTEX
  8
AM_VIS
  5
6BB
 10
15.8649
 20
3.47421
 30
0.000000
  70
    32
  0
VERTEX
  8
AM_VIS
  5
6BC
 10
15.8649
 20
3.47416
 30
0.000000
  70
    32
  0
VERTEX
  8
AM_VIS
  5
6BD
 10
15.8650
 20
3.47410
 30
0.000000
  70
    32
  0
VERTEX
  8
AM_VIS
  5
6BE
 10
15.8651
 20
3.47405
 30
0.000000
  70
    32
  0
VERTEX
  8
AM_VIS
  5
6BF
 10
15.8652
 20
3.47399
 30
0.000000
  70
    32
  0
VERTEX
  8
AM_VIS
  5
6C0
 10
15.8652
 20
3.47393
 30
0.000000
  70
    32
  0
VERTEX
  8
AM_VIS
  5
6C1
 10
15.8653
 20
3.47387
 30
0.000000
  70
    32
  0
VERTEX
  8
AM_VIS
  5
6C2
 10
15.8654
 20
3.47382
 30
0.000000
  70
    32
  0
VERTEX
  8
AM_VIS
  5
6C3
 10
15.8655
 20
3.47376
 30
0.000000
  70
    32
  0
VERTEX
  8
AM_VIS
  5
6C4
 10
15.8655
 20
3.47370
 30
0.000000
  70
    32
  0
VERTEX
  8
AM_VIS
  5
6C5
 10
15.8656
 20
3.47364
 30
0.000000
  70
    32
  0
VERTEX
  8
AM_VIS
  5
6C6
 10
15.8657
 20
3.47358
 30
0.000000
  70
    32
  0
VERTEX
  8
AM_VIS
  5
6C7
 10
15.8658
 20
3.47352
 30
0.000000
  70
    32
  0
VERTEX
  8
AM_VIS
  5
6C8
 10
15.8658
 20
3.47347
 30
0.000000
  70
    32
  0
VERTEX
  8
AM_VIS
  5
6C9
 10
15.8659
 20
3.47341
 30
0.000000
  70
    32
  0
VERTEX
  8
AM_VIS
  5
6CA
 10
15.8660
 20
3.47335
 30
0.000000
  70
    32
  0
VERTEX
  8
AM_VIS
  5
6CB
 10
15.8661
 20
3.47329
 30
0.000000
  70
    32
  0
VERTEX
  8
AM_VIS
  5
6CC
 10
15.8661
 20
3.47323
 30
0.000000
  70
    32
  0
VERTEX
  8
AM_VIS
  5
6CD
 10
15.8662
 20
3.47317
 30
0.000000
  70
    32
  0
VERTEX
  8
AM_VIS
  5
6CE
 10
15.8663
 20
3.47311
 30
0.000000
  70
    32
  0
VERTEX
  8
AM_VIS
  5
6CF
 10
15.8664
 20
3.47305
 30
0.000000
  70
    32
  0
VERTEX
  8
AM_VIS
  5
6D0
 10
15.8664
 20
3.47299
 30
0.000000
  70
    32
  0
VERTEX
  8
AM_VIS
  5
6D1
 10
15.8665
 20
3.47293
 30
0.000000
  70
    32
  0
VERTEX
  8
AM_VIS
  5
6D2
 10
15.8666
 20
3.47287
 30
0.000000
  70
    32
  0
VERTEX
  8
AM_VIS
  5
6D3
 10
15.8667
 20
3.47281
 30
0.000000
  70
    32
  0
VERTEX
  8
AM_VIS
  5
6D4
 10
15.8667
 20
3.47274
 30
0.000000
  70
    32
  0
VERTEX
  8
AM_VIS
  5
6D5
 10
15.8668
 20
3.47268
 30
0.000000
  70
    32
  0
VERTEX
  8
AM_VIS
  5
6D6
 10
15.8669
 20
3.47262
 30
0.000000
  70
    32
  0
VERTEX
  8
AM_VIS
  5
6D7
 10
15.8669
 20
3.47256
 30
0.000000
  70
    32
  0
VERTEX
  8
AM_VIS
  5
6D8
 10
15.8670
 20
3.47250
 30
0.000000
  70
    32
  0
VERTEX
  8
AM_VIS
  5
6D9
 10
15.8671
 20
3.47244
 30
0.000000
  70
    32
  0
VERTEX
  8
AM_VIS
  5
6DA
 10
15.8672
 20
3.47237
 30
0.000000
  70
    32
  0
VERTEX
  8
AM_VIS
  5
6DB
 10
15.8672
 20
3.47231
 30
0.000000
  70
    32
  0
VERTEX
  8
AM_VIS
  5
6DC
 10
15.8673
 20
3.47225
 30
0.000000
  70
    32
  0
VERTEX
  8
AM_VIS
  5
6DD
 10
15.8674
 20
3.47219
 30
0.000000
  70
    32
  0
VERTEX
  8
AM_VIS
  5
6DE
 10
15.8675
 20
3.47212
 30
0.000000
  70
    32
  0
VERTEX
  8
AM_VIS
  5
6DF
 10
15.8675
 20
3.47206
 30
0.000000
  70
    32
  0
VERTEX
  8
AM_VIS
  5
6E0
 10
15.8676
 20
3.47200
 30
0.000000
  70
    32
  0
VERTEX
  8
AM_VIS
  5
6E1
 10
15.8677
 20
3.47194
 30
0.000000
  70
    32
  0
VERTEX
  8
AM_VIS
  5
6E2
 10
15.8677
 20
3.47187
 30
0.000000
  70
    32
  0
VERTEX
  8
AM_VIS
  5
6E3
 10
15.8678
 20
3.47181
 30
0.000000
  70
    32
  0
VERTEX
  8
AM_VIS
  5
6E4
 10
15.8679
 20
3.47175
 30
0.000000
  70
    32
  0
VERTEX
  8
AM_VIS
  5
6E5
 10
15.8680
 20
3.47168
 30
0.000000
  70
    32
  0
VERTEX
  8
AM_VIS
  5
6E6
 10
15.8680
 20
3.47162
 30
0.000000
  70
    32
  0
VERTEX
  8
AM_VIS
  5
6E7
 10
15.8681
 20
3.47155
 30
0.000000
  70
    32
  0
VERTEX
  8
AM_VIS
  5
6E8
 10
15.8682
 20
3.47149
 30
0.000000
  70
    32
  0
VERTEX
  8
AM_VIS
  5
6E9
 10
15.8682
 20
3.47142
 30
0.000000
  70
    32
  0
VERTEX
  8
AM_VIS
  5
6EA
 10
15.8683
 20
3.47136
 30
0.000000
  70
    32
  0
VERTEX
  8
AM_VIS
  5
6EB
 10
15.8684
 20
3.47130
 30
0.000000
  70
    32
  0
VERTEX
  8
AM_VIS
  5
6EC
 10
15.8685
 20
3.47123
 30
0.000000
  70
    32
  0
VERTEX
  8
AM_VIS
  5
6ED
 10
15.8685
 20
3.47117
 30
0.000000
  70
    32
  0
VERTEX
  8
AM_VIS
  5
6EE
 10
15.8686
 20
3.47110
 30
0.000000
  70
    32
  0
VERTEX
  8
AM_VIS
  5
6EF
 10
15.8687
 20
3.47104
 30
0.000000
  70
    32
  0
VERTEX
  8
AM_VIS
  5
6F0
 10
15.8687
 20
3.47097
 30
0.000000
  70
    32
  0
VERTEX
  8
AM_VIS
  5
6F1
 10
15.8688
 20
3.47090
 30
0.000000
  70
    32
  0
VERTEX
  8
AM_VIS
  5
6F2
 10
15.8689
 20
3.47084
 30
0.000000
  70
    32
  0
VERTEX
  8
AM_VIS
  5
6F3
 10
15.8690
 20
3.47077
 30
0.000000
  70
    32
  0
VERTEX
  8
AM_VIS
  5
6F4
 10
15.8690
 20
3.47071
 30
0.000000
  70
    32
  0
VERTEX
  8
AM_VIS
  5
6F5
 10
15.8691
 20
3.47064
 30
0.000000
  70
    32
  0
VERTEX
  8
AM_VIS
  5
6F6
 10
15.8692
 20
3.47058
 30
0.000000
  70
    32
  0
VERTEX
  8
AM_VIS
  5
6F7
 10
15.8692
 20
3.47051
 30
0.000000
  70
    32
  0
VERTEX
  8
AM_VIS
  5
6F8
 10
15.8693
 20
3.47044
 30
0.000000
  70
    32
  0
VERTEX
  8
AM_VIS
  5
6F9
 10
15.8694
 20
3.47038
 30
0.000000
  70
    32
  0
VERTEX
  8
AM_VIS
  5
6FA
 10
15.8694
 20
3.47031
 30
0.000000
  70
    32
  0
VERTEX
  8
AM_VIS
  5
6FB
 10
15.8695
 20
3.47024
 30
0.000000
  70
    32
  0
VERTEX
  8
AM_VIS
  5
6FC
 10
15.8696
 20
3.47018
 30
0.000000
  70
    32
  0
VERTEX
  8
AM_VIS
  5
6FD
 10
15.8696
 20
3.47011
 30
0.000000
  70
    32
  0
VERTEX
  8
AM_VIS
  5
6FE
 10
15.8697
 20
3.47004
 30
0.000000
  70
    32
  0
VERTEX
  8
AM_VIS
  5
6FF
 10
15.8698
 20
3.46998
 30
0.000000
  70
    32
  0
VERTEX
  8
AM_VIS
  5
700
 10
15.8699
 20
3.46991
 30
0.000000
  70
    32
  0
VERTEX
  8
AM_VIS
  5
701
 10
15.8699
 20
3.46984
 30
0.000000
  70
    32
  0
VERTEX
  8
AM_VIS
  5
702
 10
15.8700
 20
3.46977
 30
0.000000
  70
    32
  0
VERTEX
  8
AM_VIS
  5
703
 10
15.8701
 20
3.46971
 30
0.000000
  70
    32
  0
VERTEX
  8
AM_VIS
  5
704
 10
15.8701
 20
3.46964
 30
0.000000
  70
    32
  0
VERTEX
  8
AM_VIS
  5
705
 10
15.8702
 20
3.46957
 30
0.000000
  70
    32
  0
VERTEX
  8
AM_VIS
  5
706
 10
15.8703
 20
3.46950
 30
0.000000
  70
    32
  0
VERTEX
  8
AM_VIS
  5
707
 10
15.8703
 20
3.46944
 30
0.000000
  70
    32
  0
VERTEX
  8
AM_VIS
  5
708
 10
15.8704
 20
3.46937
 30
0.000000
  70
    32
  0
VERTEX
  8
AM_VIS
  5
709
 10
15.8705
 20
3.46930
 30
0.000000
  70
    32
  0
VERTEX
  8
AM_VIS
  5
70A
 10
15.8705
 20
3.46923
 30
0.000000
  70
    32
  0
VERTEX
  8
AM_VIS
  5
70B
 10
15.8706
 20
3.46916
 30
0.000000
  70
    32
  0
VERTEX
  8
AM_VIS
  5
70C
 10
15.8707
 20
3.46910
 30
0.000000
  70
    32
  0
VERTEX
  8
AM_VIS
  5
70D
 10
15.8707
 20
3.46903
 30
0.000000
  70
    32
  0
VERTEX
  8
AM_VIS
  5
70E
 10
15.8708
 20
3.46896
 30
0.000000
  70
    32
  0
VERTEX
  8
AM_VIS
  5
70F
 10
15.8709
 20
3.46889
 30
0.000000
  70
    32
  0
VERTEX
  8
AM_VIS
  5
710
 10
15.8709
 20
3.46882
 30
0.000000
  70
    32
  0
VERTEX
  8
AM_VIS
  5
711
 10
15.8710
 20
3.46875
 30
0.000000
  70
    32
  0
VERTEX
  8
AM_VIS
  5
712
 10
15.8711
 20
3.46868
 30
0.000000
  70
    32
  0
VERTEX
  8
AM_VIS
  5
713
 10
15.8711
 20
3.46861
 30
0.000000
  70
    32
  0
VERTEX
  8
AM_VIS
  5
714
 10
15.8712
 20
3.46855
 30
0.000000
  70
    32
  0
VERTEX
  8
AM_VIS
  5
715
 10
15.8713
 20
3.46848
 30
0.000000
  70
    32
  0
VERTEX
  8
AM_VIS
  5
716
 10
15.8713
 20
3.46841
 30
0.000000
  70
    32
  0
VERTEX
  8
AM_VIS
  5
717
 10
15.8714
 20
3.46834
 30
0.000000
  70
    32
  0
VERTEX
  8
AM_VIS
  5
718
 10
15.8715
 20
3.46827
 30
0.000000
  70
    32
  0
VERTEX
  8
AM_VIS
  5
719
 10
15.8715
 20
3.46820
 30
0.000000
  70
    32
  0
VERTEX
  8
AM_VIS
  5
71A
 10
15.8716
 20
3.46813
 30
0.000000
  70
    32
  0
VERTEX
  8
AM_VIS
  5
71B
 10
15.8717
 20
3.46806
 30
0.000000
  70
    32
  0
VERTEX
  8
AM_VIS
  5
71C
 10
15.8717
 20
3.46799
 30
0.000000
  70
    32
  0
VERTEX
  8
AM_VIS
  5
71D
 10
15.8718
 20
3.46792
 30
0.000000
  70
    32
  0
VERTEX
  8
AM_VIS
  5
71E
 10
15.8719
 20
3.46785
 30
0.000000
  70
    32
  0
VERTEX
  8
AM_VIS
  5
71F
 10
15.8719
 20
3.46778
 30
0.000000
  70
    32
  0
VERTEX
  8
AM_VIS
  5
720
 10
15.8720
 20
3.46771
 30
0.000000
  70
    32
  0
VERTEX
  8
AM_VIS
  5
721
 10
15.8721
 20
3.46764
 30
0.000000
  70
    32
  0
VERTEX
  8
AM_VIS
  5
722
 10
15.8721
 20
3.46757
 30
0.000000
  70
    32
  0
VERTEX
  8
AM_VIS
  5
723
 10
15.8722
 20
3.46750
 30
0.000000
  70
    32
  0
VERTEX
  8
AM_VIS
  5
724
 10
15.8723
 20
3.46743
 30
0.000000
  70
    32
  0
VERTEX
  8
AM_VIS
  5
725
 10
15.8723
 20
3.46736
 30
0.000000
  70
    32
  0
VERTEX
  8
AM_VIS
  5
726
 10
15.8724
 20
3.46729
 30
0.000000
  70
    32
  0
VERTEX
  8
AM_VIS
  5
727
 10
15.8724
 20
3.46722
 30
0.000000
  70
    32
  0
VERTEX
  8
AM_VIS
  5
728
 10
15.8725
 20
3.46715
 30
0.000000
  70
    32
  0
VERTEX
  8
AM_VIS
  5
729
 10
15.8726
 20
3.46708
 30
0.000000
  70
    32
  0
VERTEX
  8
AM_VIS
  5
72A
 10
15.8726
 20
3.46701
 30
0.000000
  70
    32
  0
VERTEX
  8
AM_VIS
  5
72B
 10
15.8727
 20
3.46694
 30
0.000000
  70
    32
  0
VERTEX
  8
AM_VIS
  5
72C
 10
15.8728
 20
3.46687
 30
0.000000
  70
    32
  0
VERTEX
  8
AM_VIS
  5
72D
 10
15.8728
 20
3.46680
 30
0.000000
  70
    32
  0
VERTEX
  8
AM_VIS
  5
72E
 10
15.8729
 20
3.46673
 30
0.000000
  70
    32
  0
VERTEX
  8
AM_VIS
  5
72F
 10
15.8730
 20
3.46666
 30
0.000000
  70
    32
  0
VERTEX
  8
AM_VIS
  5
730
 10
15.8730
 20
3.46659
 30
0.000000
  70
    32
  0
VERTEX
  8
AM_VIS
  5
731
 10
15.8731
 20
3.46652
 30
0.000000
  70
    32
  0
VERTEX
  8
AM_VIS
  5
732
 10
15.8731
 20
3.46645
 30
0.000000
  70
    32
  0
VERTEX
  8
AM_VIS
  5
733
 10
15.8732
 20
3.46638
 30
0.000000
  70
    32
  0
VERTEX
  8
AM_VIS
  5
734
 10
15.8733
 20
3.46631
 30
0.000000
  70
    32
  0
VERTEX
  8
AM_VIS
  5
735
 10
15.8733
 20
3.46624
 30
0.000000
  70
    32
  0
VERTEX
  8
AM_VIS
  5
736
 10
15.8734
 20
3.46617
 30
0.000000
  70
    32
  0
VERTEX
  8
AM_VIS
  5
737
 10
15.8734
 20
3.46610
 30
0.000000
  70
    32
  0
VERTEX
  8
AM_VIS
  5
738
 10
15.8735
 20
3.46603
 30
0.000000
  70
    32
  0
VERTEX
  8
AM_VIS
  5
739
 10
15.8736
 20
3.46596
 30
0.000000
  70
    32
  0
VERTEX
  8
AM_VIS
  5
73A
 10
15.8736
 20
3.46589
 30
0.000000
  70
    32
  0
VERTEX
  8
AM_VIS
  5
73B
 10
15.8737
 20
3.46582
 30
0.000000
  70
    32
  0
VERTEX
  8
AM_VIS
  5
73C
 10
15.8738
 20
3.46575
 30
0.000000
  70
    32
  0
VERTEX
  8
AM_VIS
  5
73D
 10
15.8738
 20
3.46568
 30
0.000000
  70
    32
  0
VERTEX
  8
AM_VIS
  5
73E
 10
15.8739
 20
3.46561
 30
0.000000
  70
    32
  0
VERTEX
  8
AM_VIS
  5
73F
 10
15.8739
 20
3.46554
 30
0.000000
  70
    32
  0
VERTEX
  8
AM_VIS
  5
740
 10
15.8740
 20
3.46547
 30
0.000000
  70
    32
  0
VERTEX
  8
AM_VIS
  5
741
 10
15.8741
 20
3.46540
 30
0.000000
  70
    32
  0
VERTEX
  8
AM_VIS
  5
742
 10
15.8741
 20
3.46533
 30
0.000000
  70
    32
  0
VERTEX
  8
AM_VIS
  5
743
 10
15.8742
 20
3.46525
 30
0.000000
  70
    32
  0
VERTEX
  8
AM_VIS
  5
744
 10
15.8742
 20
3.46518
 30
0.000000
  70
    32
  0
VERTEX
  8
AM_VIS
  5
745
 10
15.8743
 20
3.46511
 30
0.000000
  70
    32
  0
VERTEX
  8
AM_VIS
  5
746
 10
15.8744
 20
3.46504
 30
0.000000
  70
    32
  0
VERTEX
  8
AM_VIS
  5
747
 10
15.8744
 20
3.46497
 30
0.000000
  70
    32
  0
VERTEX
  8
AM_VIS
  5
748
 10
15.8745
 20
3.46490
 30
0.000000
  70
    32
  0
VERTEX
  8
AM_VIS
  5
749
 10
15.8745
 20
3.46483
 30
0.000000
  70
    32
  0
VERTEX
  8
AM_VIS
  5
74A
 10
15.8746
 20
3.46476
 30
0.000000
  70
    32
  0
VERTEX
  8
AM_VIS
  5
74B
 10
15.8747
 20
3.46469
 30
0.000000
  70
    32
  0
VERTEX
  8
AM_VIS
  5
74C
 10
15.8747
 20
3.46462
 30
0.000000
  70
    32
  0
VERTEX
  8
AM_VIS
  5
74D
 10
15.8748
 20
3.46455
 30
0.000000
  70
    32
  0
VERTEX
  8
AM_VIS
  5
74E
 10
15.8748
 20
3.46448
 30
0.000000
  70
    32
  0
VERTEX
  8
AM_VIS
  5
74F
 10
15.8749
 20
3.46441
 30
0.000000
  70
    32
  0
VERTEX
  8
AM_VIS
  5
750
 10
15.8749
 20
3.46434
 30
0.000000
  70
    32
  0
VERTEX
  8
AM_VIS
  5
751
 10
15.8750
 20
3.46427
 30
0.000000
  70
    32
  0
VERTEX
  8
AM_VIS
  5
752
 10
15.8751
 20
3.46420
 30
0.000000
  70
    32
  0
VERTEX
  8
AM_VIS
  5
753
 10
15.8751
 20
3.46413
 30
0.000000
  70
    32
  0
VERTEX
  8
AM_VIS
  5
754
 10
15.8752
 20
3.46406
 30
0.000000
  70
    32
  0
VERTEX
  8
AM_VIS
  5
755
 10
15.8752
 20
3.46399
 30
0.000000
  70
    32
  0
VERTEX
  8
AM_VIS
  5
756
 10
15.8753
 20
3.46392
 30
0.000000
  70
    32
  0
VERTEX
  8
AM_VIS
  5
757
 10
15.8754
 20
3.46385
 30
0.000000
  70
    32
  0
VERTEX
  8
AM_VIS
  5
758
 10
15.8754
 20
3.46378
 30
0.000000
  70
    32
  0
VERTEX
  8
AM_VIS
  5
759
 10
15.8755
 20
3.46371
 30
0.000000
  70
    32
  0
VERTEX
  8
AM_VIS
  5
75A
 10
15.8755
 20
3.46364
 30
0.000000
  70
    32
  0
VERTEX
  8
AM_VIS
  5
75B
 10
15.8756
 20
3.46357
 30
0.000000
  70
    32
  0
VERTEX
  8
AM_VIS
  5
75C
 10
15.8756
 20
3.46350
 30
0.000000
  70
    32
  0
VERTEX
  8
AM_VIS
  5
75D
 10
15.8757
 20
3.46343
 30
0.000000
  70
    32
  0
VERTEX
  8
AM_VIS
  5
75E
 10
15.8757
 20
3.46336
 30
0.000000
  70
    32
  0
VERTEX
  8
AM_VIS
  5
75F
 10
15.8758
 20
3.46329
 30
0.000000
  70
    32
  0
VERTEX
  8
AM_VIS
  5
760
 10
15.8759
 20
3.46322
 30
0.000000
  70
    32
  0
VERTEX
  8
AM_VIS
  5
761
 10
15.8759
 20
3.46315
 30
0.000000
  70
    32
  0
VERTEX
  8
AM_VIS
  5
762
 10
15.8760
 20
3.46308
 30
0.000000
  70
    32
  0
VERTEX
  8
AM_VIS
  5
763
 10
15.8760
 20
3.46301
 30
0.000000
  70
    32
  0
VERTEX
  8
AM_VIS
  5
764
 10
15.8761
 20
3.46294
 30
0.000000
  70
    32
  0
VERTEX
  8
AM_VIS
  5
765
 10
15.8761
 20
3.46287
 30
0.000000
  70
    32
  0
VERTEX
  8
AM_VIS
  5
766
 10
15.8762
 20
3.46280
 30
0.000000
  70
    32
  0
VERTEX
  8
AM_VIS
  5
767
 10
15.8762
 20
3.46273
 30
0.000000
  70
    32
  0
VERTEX
  8
AM_VIS
  5
768
 10
15.8763
 20
3.46266
 30
0.000000
  70
    32
  0
VERTEX
  8
AM_VIS
  5
769
 10
15.8764
 20
3.46259
 30
0.000000
  70
    32
  0
VERTEX
  8
AM_VIS
  5
76A
 10
15.8764
 20
3.46252
 30
0.000000
  70
    32
  0
VERTEX
  8
AM_VIS
  5
76B
 10
15.8765
 20
3.46246
 30
0.000000
  70
    32
  0
VERTEX
  8
AM_VIS
  5
76C
 10
15.8765
 20
3.46239
 30
0.000000
  70
    32
  0
VERTEX
  8
AM_VIS
  5
76D
 10
15.8766
 20
3.46232
 30
0.000000
  70
    32
  0
VERTEX
  8
AM_VIS
  5
76E
 10
15.8766
 20
3.46225
 30
0.000000
  70
    32
  0
VERTEX
  8
AM_VIS
  5
76F
 10
15.8767
 20
3.46218
 30
0.000000
  70
    32
  0
VERTEX
  8
AM_VIS
  5
770
 10
15.8767
 20
3.46211
 30
0.000000
  70
    32
  0
VERTEX
  8
AM_VIS
  5
771
 10
15.8768
 20
3.46204
 30
0.000000
  70
    32
  0
VERTEX
  8
AM_VIS
  5
772
 10
15.8768
 20
3.46197
 30
0.000000
  70
    32
  0
VERTEX
  8
AM_VIS
  5
773
 10
15.8769
 20
3.46191
 30
0.000000
  70
    32
  0
VERTEX
  8
AM_VIS
  5
774
 10
15.8769
 20
3.46184
 30
0.000000
  70
    32
  0
VERTEX
  8
AM_VIS
  5
775
 10
15.8770
 20
3.46177
 30
0.000000
  70
    32
  0
VERTEX
  8
AM_VIS
  5
776
 10
15.8771
 20
3.46170
 30
0.000000
  70
    32
  0
VERTEX
  8
AM_VIS
  5
777
 10
15.8771
 20
3.46163
 30
0.000000
  70
    32
  0
VERTEX
  8
AM_VIS
  5
778
 10
15.8772
 20
3.46156
 30
0.000000
  70
    32
  0
VERTEX
  8
AM_VIS
  5
779
 10
15.8772
 20
3.46150
 30
0.000000
  70
    32
  0
VERTEX
  8
AM_VIS
  5
77A
 10
15.8773
 20
3.46143
 30
0.000000
  70
    32
  0
VERTEX
  8
AM_VIS
  5
77B
 10
15.8773
 20
3.46136
 30
0.000000
  70
    32
  0
VERTEX
  8
AM_VIS
  5
77C
 10
15.8774
 20
3.46129
 30
0.000000
  70
    32
  0
VERTEX
  8
AM_VIS
  5
77D
 10
15.8774
 20
3.46123
 30
0.000000
  70
    32
  0
VERTEX
  8
AM_VIS
  5
77E
 10
15.8775
 20
3.46116
 30
0.000000
  70
    32
  0
VERTEX
  8
AM_VIS
  5
77F
 10
15.8775
 20
3.46109
 30
0.000000
  70
    32
  0
VERTEX
  8
AM_VIS
  5
780
 10
15.8776
 20
3.46102
 30
0.000000
  70
    32
  0
VERTEX
  8
AM_VIS
  5
781
 10
15.8776
 20
3.46096
 30
0.000000
  70
    32
  0
VERTEX
  8
AM_VIS
  5
782
 10
15.8777
 20
3.46089
 30
0.000000
  70
    32
  0
VERTEX
  8
AM_VIS
  5
783
 10
15.8777
 20
3.46082
 30
0.000000
  70
    32
  0
VERTEX
  8
AM_VIS
  5
784
 10
15.8778
 20
3.46076
 30
0.000000
  70
    32
  0
VERTEX
  8
AM_VIS
  5
785
 10
15.8778
 20
3.46069
 30
0.000000
  70
    32
  0
VERTEX
  8
AM_VIS
  5
786
 10
15.8779
 20
3.46062
 30
0.000000
  70
    32
  0
VERTEX
  8
AM_VIS
  5
787
 10
15.8779
 20
3.46056
 30
0.000000
  70
    32
  0
VERTEX
  8
AM_VIS
  5
788
 10
15.8780
 20
3.46049
 30
0.000000
  70
    32
  0
VERTEX
  8
AM_VIS
  5
789
 10
15.8780
 20
3.46042
 30
0.000000
  70
    32
  0
VERTEX
  8
AM_VIS
  5
78A
 10
15.8781
 20
3.46036
 30
0.000000
  70
    32
  0
VERTEX
  8
AM_VIS
  5
78B
 10
15.8781
 20
3.46029
 30
0.000000
  70
    32
  0
VERTEX
  8
AM_VIS
  5
78C
 10
15.8782
 20
3.46023
 30
0.000000
  70
    32
  0
VERTEX
  8
AM_VIS
  5
78D
 10
15.8782
 20
3.46016
 30
0.000000
  70
    32
  0
VERTEX
  8
AM_VIS
  5
78E
 10
15.8783
 20
3.46009
 30
0.000000
  70
    32
  0
VERTEX
  8
AM_VIS
  5
78F
 10
15.8783
 20
3.46003
 30
0.000000
  70
    32
  0
VERTEX
  8
AM_VIS
  5
790
 10
15.8784
 20
3.45996
 30
0.000000
  70
    32
  0
VERTEX
  8
AM_VIS
  5
791
 10
15.8784
 20
3.45990
 30
0.000000
  70
    32
  0
VERTEX
  8
AM_VIS
  5
792
 10
15.8785
 20
3.45983
 30
0.000000
  70
    32
  0
VERTEX
  8
AM_VIS
  5
793
 10
15.8785
 20
3.45977
 30
0.000000
  70
    32
  0
VERTEX
  8
AM_VIS
  5
794
 10
15.8786
 20
3.45970
 30
0.000000
  70
    32
  0
VERTEX
  8
AM_VIS
  5
795
 10
15.8786
 20
3.45964
 30
0.000000
  70
    32
  0
VERTEX
  8
AM_VIS
  5
796
 10
15.8786
 20
3.45957
 30
0.000000
  70
    32
  0
VERTEX
  8
AM_VIS
  5
797
 10
15.8787
 20
3.45951
 30
0.000000
  70
    32
  0
VERTEX
  8
AM_VIS
  5
798
 10
15.8787
 20
3.45944
 30
0.000000
  70
    32
  0
VERTEX
  8
AM_VIS
  5
799
 10
15.8788
 20
3.45938
 30
0.000000
  70
    32
  0
VERTEX
  8
AM_VIS
  5
79A
 10
15.8788
 20
3.45932
 30
0.000000
  70
    32
  0
VERTEX
  8
AM_VIS
  5
79B
 10
15.8789
 20
3.45925
 30
0.000000
  70
    32
  0
VERTEX
  8
AM_VIS
  5
79C
 10
15.8789
 20
3.45919
 30
0.000000
  70
    32
  0
VERTEX
  8
AM_VIS
  5
79D
 10
15.8790
 20
3.45912
 30
0.000000
  70
    32
  0
VERTEX
  8
AM_VIS
  5
79E
 10
15.8790
 20
3.45906
 30
0.000000
  70
    32
  0
VERTEX
  8
AM_VIS
  5
79F
 10
15.8791
 20
3.45900
 30
0.000000
  70
    32
  0
VERTEX
  8
AM_VIS
  5
7A0
 10
15.8791
 20
3.45893
 30
0.000000
  70
    32
  0
VERTEX
  8
AM_VIS
  5
7A1
 10
15.8792
 20
3.45887
 30
0.000000
  70
    32
  0
VERTEX
  8
AM_VIS
  5
7A2
 10
15.8792
 20
3.45881
 30
0.000000
  70
    32
  0
VERTEX
  8
AM_VIS
  5
7A3
 10
15.8792
 20
3.45875
 30
0.000000
  70
    32
  0
VERTEX
  8
AM_VIS
  5
7A4
 10
15.8793
 20
3.45868
 30
0.000000
  70
    32
  0
VERTEX
  8
AM_VIS
  5
7A5
 10
15.8793
 20
3.45862
 30
0.000000
  70
    32
  0
VERTEX
  8
AM_VIS
  5
7A6
 10
15.8794
 20
3.45856
 30
0.000000
  70
    32
  0
VERTEX
  8
AM_VIS
  5
7A7
 10
15.8794
 20
3.45850
 30
0.000000
  70
    32
  0
VERTEX
  8
AM_VIS
  5
7A8
 10
15.8795
 20
3.45843
 30
0.000000
  70
    32
  0
VERTEX
  8
AM_VIS
  5
7A9
 10
15.8795
 20
3.45837
 30
0.000000
  70
    32
  0
VERTEX
  8
AM_VIS
  5
7AA
 10
15.8796
 20
3.45831
 30
0.000000
  70
    32
  0
VERTEX
  8
AM_VIS
  5
7AB
 10
15.8796
 20
3.45825
 30
0.000000
  70
    32
  0
VERTEX
  8
AM_VIS
  5
7AC
 10
15.8796
 20
3.45819
 30
0.000000
  70
    32
  0
VERTEX
  8
AM_VIS
  5
7AD
 10
15.8797
 20
3.45813
 30
0.000000
  70
    32
  0
VERTEX
  8
AM_VIS
  5
7AE
 10
15.8797
 20
3.45807
 30
0.000000
  70
    32
  0
VERTEX
  8
AM_VIS
  5
7AF
 10
15.8798
 20
3.45801
 30
0.000000
  70
    32
  0
VERTEX
  8
AM_VIS
  5
7B0
 10
15.8798
 20
3.45795
 30
0.000000
  70
    32
  0
VERTEX
  8
AM_VIS
  5
7B1
 10
15.8799
 20
3.45789
 30
0.000000
  70
    32
  0
VERTEX
  8
AM_VIS
  5
7B2
 10
15.8799
 20
3.45783
 30
0.000000
  70
    32
  0
VERTEX
  8
AM_VIS
  5
7B3
 10
15.8799
 20
3.45777
 30
0.000000
  70
    32
  0
VERTEX
  8
AM_VIS
  5
7B4
 10
15.8800
 20
3.45771
 30
0.000000
  70
    32
  0
VERTEX
  8
AM_VIS
  5
7B5
 10
15.8800
 20
3.45765
 30
0.000000
  70
    32
  0
VERTEX
  8
AM_VIS
  5
7B6
 10
15.8801
 20
3.45759
 30
0.000000
  70
    32
  0
VERTEX
  8
AM_VIS
  5
7B7
 10
15.8801
 20
3.45753
 30
0.000000
  70
    32
  0
VERTEX
  8
AM_VIS
  5
7B8
 10
15.8801
 20
3.45747
 30
0.000000
  70
    32
  0
VERTEX
  8
AM_VIS
  5
7B9
 10
15.8802
 20
3.45741
 30
0.000000
  70
    32
  0
VERTEX
  8
AM_VIS
  5
7BA
 10
15.8802
 20
3.45735
 30
0.000000
  70
    32
  0
VERTEX
  8
AM_VIS
  5
7BB
 10
15.8803
 20
3.45729
 30
0.000000
  70
    32
  0
VERTEX
  8
AM_VIS
  5
7BC
 10
15.8803
 20
3.45723
 30
0.000000
  70
    32
  0
VERTEX
  8
AM_VIS
  5
7BD
 10
15.8804
 20
3.45718
 30
0.000000
  70
    32
  0
VERTEX
  8
AM_VIS
  5
7BE
 10
15.8804
 20
3.45712
 30
0.000000
  70
    32
  0
VERTEX
  8
AM_VIS
  5
7BF
 10
15.8804
 20
3.45706
 30
0.000000
  70
    32
  0
VERTEX
  8
AM_VIS
  5
7C0
 10
15.8805
 20
3.45700
 30
0.000000
  70
    32
  0
VERTEX
  8
AM_VIS
  5
7C1
 10
15.8805
 20
3.45695
 30
0.000000
  70
    32
  0
VERTEX
  8
AM_VIS
  5
7C2
 10
15.8805
 20
3.45689
 30
0.000000
  70
    32
  0
VERTEX
  8
AM_VIS
  5
7C3
 10
15.8806
 20
3.45683
 30
0.000000
  70
    32
  0
VERTEX
  8
AM_VIS
  5
7C4
 10
15.8806
 20
3.45678
 30
0.000000
  70
    32
  0
VERTEX
  8
AM_VIS
  5
7C5
 10
15.8807
 20
3.45672
 30
0.000000
  70
    32
  0
VERTEX
  8
AM_VIS
  5
7C6
 10
15.8807
 20
3.45667
 30
0.000000
  70
    32
  0
VERTEX
  8
AM_VIS
  5
7C7
 10
15.8807
 20
3.45661
 30
0.000000
  70
    32
  0
VERTEX
  8
AM_VIS
  5
7C8
 10
15.8808
 20
3.45656
 30
0.000000
  70
    32
  0
VERTEX
  8
AM_VIS
  5
7C9
 10
15.8808
 20
3.45650
 30
0.000000
  70
    32
  0
VERTEX
  8
AM_VIS
  5
7CA
 10
15.8809
 20
3.45645
 30
0.000000
  70
    32
  0
VERTEX
  8
AM_VIS
  5
7CB
 10
15.8809
 20
3.45639
 30
0.000000
  70
    32
  0
VERTEX
  8
AM_VIS
  5
7CC
 10
15.8809
 20
3.45634
 30
0.000000
  70
    32
  0
VERTEX
  8
AM_VIS
  5
7CD
 10
15.8810
 20
3.45628
 30
0.000000
  70
    32
  0
VERTEX
  8
AM_VIS
  5
7CE
 10
15.8810
 20
3.45623
 30
0.000000
  70
    32
  0
VERTEX
  8
AM_VIS
  5
7CF
 10
15.8810
 20
3.45618
 30
0.000000
  70
    32
  0
VERTEX
  8
AM_VIS
  5
7D0
 10
15.8811
 20
3.45612
 30
0.000000
  70
    32
  0
VERTEX
  8
AM_VIS
  5
7D1
 10
15.8811
 20
3.45607
 30
0.000000
  70
    32
  0
VERTEX
  8
AM_VIS
  5
7D2
 10
15.8811
 20
3.45602
 30
0.000000
  70
    32
  0
VERTEX
  8
AM_VIS
  5
7D3
 10
15.8812
 20
3.45596
 30
0.000000
  70
    32
  0
VERTEX
  8
AM_VIS
  5
7D4
 10
15.8812
 20
3.45591
 30
0.000000
  70
    32
  0
VERTEX
  8
AM_VIS
  5
7D5
 10
15.8813
 20
3.45586
 30
0.000000
  70
    32
  0
VERTEX
  8
AM_VIS
  5
7D6
 10
15.8813
 20
3.45581
 30
0.000000
  70
    32
  0
VERTEX
  8
AM_VIS
  5
7D7
 10
15.8813
 20
3.45576
 30
0.000000
  70
    32
  0
VERTEX
  8
AM_VIS
  5
7D8
 10
15.8814
 20
3.45571
 30
0.000000
  70
    32
  0
VERTEX
  8
AM_VIS
  5
7D9
 10
15.8814
 20
3.45566
 30
0.000000
  70
    32
  0
VERTEX
  8
AM_VIS
  5
7DA
 10
15.8814
 20
3.45560
 30
0.000000
  70
    32
  0
VERTEX
  8
AM_VIS
  5
7DB
 10
15.8815
 20
3.45555
 30
0.000000
  70
    32
  0
VERTEX
  8
AM_VIS
  5
7DC
 10
15.8815
 20
3.45550
 30
0.000000
  70
    32
  0
VERTEX
  8
AM_VIS
  5
7DD
 10
15.8815
 20
3.45545
 30
0.000000
  70
    32
  0
VERTEX
  8
AM_VIS
  5
7DE
 10
15.8816
 20
3.45540
 30
0.000000
  70
    32
  0
VERTEX
  8
AM_VIS
  5
7DF
 10
15.8816
 20
3.45536
 30
0.000000
  70
    32
  0
VERTEX
  8
AM_VIS
  5
7E0
 10
15.8816
 20
3.45531
 30
0.000000
  70
    32
  0
VERTEX
  8
AM_VIS
  5
7E1
 10
15.8817
 20
3.45526
 30
0.000000
  70
    32
  0
VERTEX
  8
AM_VIS
  5
7E2
 10
15.8817
 20
3.45521
 30
0.000000
  70
    32
  0
VERTEX
  8
AM_VIS
  5
7E3
 10
15.8817
 20
3.45516
 30
0.000000
  70
    32
  0
VERTEX
  8
AM_VIS
  5
7E4
 10
15.8818
 20
3.45511
 30
0.000000
  70
    32
  0
VERTEX
  8
AM_VIS
  5
7E5
 10
15.8818
 20
3.45507
 30
0.000000
  70
    32
  0
VERTEX
  8
AM_VIS
  5
7E6
 10
15.8818
 20
3.45502
 30
0.000000
  70
    32
  0
VERTEX
  8
AM_VIS
  5
7E7
 10
15.8818
 20
3.45497
 30
0.000000
  70
    32
  0
VERTEX
  8
AM_VIS
  5
7E8
 10
15.8819
 20
3.45492
 30
0.000000
  70
    32
  0
VERTEX
  8
AM_VIS
  5
7E9
 10
15.8819
 20
3.45488
 30
0.000000
  70
    32
  0
VERTEX
  8
AM_VIS
  5
7EA
 10
15.8819
 20
3.45483
 30
0.000000
  70
    32
  0
VERTEX
  8
AM_VIS
  5
7EB
 10
15.8820
 20
3.45478
 30
0.000000
  70
    32
  0
VERTEX
  8
AM_VIS
  5
7EC
 10
15.8820
 20
3.45474
 30
0.000000
  70
    32
  0
VERTEX
  8
AM_VIS
  5
7ED
 10
15.8820
 20
3.45469
 30
0.000000
  70
    32
  0
VERTEX
  8
AM_VIS
  5
7EE
 10
15.8821
 20
3.45465
 30
0.000000
  70
    32
  0
VERTEX
  8
AM_VIS
  5
7EF
 10
15.8821
 20
3.45460
 30
0.000000
  70
    32
  0
VERTEX
  8
AM_VIS
  5
7F0
 10
15.8821
 20
3.45456
 30
0.000000
  70
    32
  0
VERTEX
  8
AM_VIS
  5
7F1
 10
15.8821
 20
3.45451
 30
0.000000
  70
    32
  0
VERTEX
  8
AM_VIS
  5
7F2
 10
15.8822
 20
3.45447
 30
0.000000
  70
    32
  0
VERTEX
  8
AM_VIS
  5
7F3
 10
15.8822
 20
3.45443
 30
0.000000
  70
    32
  0
VERTEX
  8
AM_VIS
  5
7F4
 10
15.8822
 20
3.45438
 30
0.000000
  70
    32
  0
VERTEX
  8
AM_VIS
  5
7F5
 10
15.8823
 20
3.45434
 30
0.000000
  70
    32
  0
VERTEX
  8
AM_VIS
  5
7F6
 10
15.8823
 20
3.45430
 30
0.000000
  70
    32
  0
VERTEX
  8
AM_VIS
  5
7F7
 10
15.8823
 20
3.45425
 30
0.000000
  70
    32
  0
VERTEX
  8
AM_VIS
  5
7F8
 10
15.8823
 20
3.45421
 30
0.000000
  70
    32
  0
VERTEX
  8
AM_VIS
  5
7F9
 10
15.8824
 20
3.45417
 30
0.000000
  70
    32
  0
VERTEX
  8
AM_VIS
  5
7FA
 10
15.8824
 20
3.45413
 30
0.000000
  70
    32
  0
VERTEX
  8
AM_VIS
  5
7FB
 10
15.8824
 20
3.45409
 30
0.000000
  70
    32
  0
VERTEX
  8
AM_VIS
  5
7FC
 10
15.8825
 20
3.45404
 30
0.000000
  70
    32
  0
VERTEX
  8
AM_VIS
  5
7FD
 10
15.8825
 20
3.45400
 30
0.000000
  70
    32
  0
VERTEX
  8
AM_VIS
  5
7FE
 10
15.8825
 20
3.45396
 30
0.000000
  70
    32
  0
VERTEX
  8
AM_VIS
  5
7FF
 10
15.8825
 20
3.45392
 30
0.000000
  70
    32
  0
VERTEX
  8
AM_VIS
  5
800
 10
15.8826
 20
3.45388
 30
0.000000
  70
    32
  0
VERTEX
  8
AM_VIS
  5
801
 10
15.8826
 20
3.45384
 30
0.000000
  70
    32
  0
VERTEX
  8
AM_VIS
  5
802
 10
15.8826
 20
3.45380
 30
0.000000
  70
    32
  0
VERTEX
  8
AM_VIS
  5
803
 10
15.8826
 20
3.45376
 30
0.000000
  70
    32
  0
VERTEX
  8
AM_VIS
  5
804
 10
15.8827
 20
3.45372
 30
0.000000
  70
    32
  0
VERTEX
  8
AM_VIS
  5
805
 10
15.8827
 20
3.45369
 30
0.000000
  70
    32
  0
VERTEX
  8
AM_VIS
  5
806
 10
15.8827
 20
3.45365
 30
0.000000
  70
    32
  0
VERTEX
  8
AM_VIS
  5
807
 10
15.8827
 20
3.45361
 30
0.000000
  70
    32
  0
VERTEX
  8
AM_VIS
  5
808
 10
15.8828
 20
3.45357
 30
0.000000
  70
    32
  0
VERTEX
  8
AM_VIS
  5
809
 10
15.8828
 20
3.45353
 30
0.000000
  70
    32
  0
VERTEX
  8
AM_VIS
  5
80A
 10
15.8828
 20
3.45350
 30
0.000000
  70
    32
  0
VERTEX
  8
AM_VIS
  5
80B
 10
15.8828
 20
3.45346
 30
0.000000
  70
    32
  0
VERTEX
  8
AM_VIS
  5
80C
 10
15.8829
 20
3.45342
 30
0.000000
  70
    32
  0
VERTEX
  8
AM_VIS
  5
80D
 10
15.8829
 20
3.45339
 30
0.000000
  70
    32
  0
VERTEX
  8
AM_VIS
  5
80E
 10
15.8829
 20
3.45335
 30
0.000000
  70
    32
  0
VERTEX
  8
AM_VIS
  5
80F
 10
15.8829
 20
3.45332
 30
0.000000
  70
    32
  0
VERTEX
  8
AM_VIS
  5
810
 10
15.8830
 20
3.45328
 30
0.000000
  70
    32
  0
VERTEX
  8
AM_VIS
  5
811
 10
15.8830
 20
3.45325
 30
0.000000
  70
    32
  0
VERTEX
  8
AM_VIS
  5
812
 10
15.8830
 20
3.45321
 30
0.000000
  70
    32
  0
VERTEX
  8
AM_VIS
  5
813
 10
15.8830
 20
3.45318
 30
0.000000
  70
    32
  0
VERTEX
  8
AM_VIS
  5
814
 10
15.8830
 20
3.45314
 30
0.000000
  70
    32
  0
VERTEX
  8
AM_VIS
  5
815
 10
15.8831
 20
3.45311
 30
0.000000
  70
    32
  0
VERTEX
  8
AM_VIS
  5
816
 10
15.8831
 20
3.45307
 30
0.000000
  70
    32
  0
VERTEX
  8
AM_VIS
  5
817
 10
15.8831
 20
3.45304
 30
0.000000
  70
    32
  0
VERTEX
  8
AM_VIS
  5
818
 10
15.8831
 20
3.45301
 30
0.000000
  70
    32
  0
VERTEX
  8
AM_VIS
  5
819
 10
15.8831
 20
3.45298
 30
0.000000
  70
    32
  0
VERTEX
  8
AM_VIS
  5
81A
 10
15.8832
 20
3.45294
 30
0.000000
  70
    32
  0
VERTEX
  8
AM_VIS
  5
81B
 10
15.8832
 20
3.45291
 30
0.000000
  70
    32
  0
VERTEX
  8
AM_VIS
  5
81C
 10
15.8832
 20
3.45288
 30
0.000000
  70
    32
  0
VERTEX
  8
AM_VIS
  5
81D
 10
15.8832
 20
3.45285
 30
0.000000
  70
    32
  0
VERTEX
  8
AM_VIS
  5
81E
 10
15.8832
 20
3.45282
 30
0.000000
  70
    32
  0
VERTEX
  8
AM_VIS
  5
81F
 10
15.8833
 20
3.45279
 30
0.000000
  70
    32
  0
VERTEX
  8
AM_VIS
  5
820
 10
15.8833
 20
3.45276
 30
0.000000
  70
    32
  0
VERTEX
  8
AM_VIS
  5
821
 10
15.8833
 20
3.45273
 30
0.000000
  70
    32
  0
VERTEX
  8
AM_VIS
  5
822
 10
15.8833
 20
3.45270
 30
0.000000
  70
    32
  0
VERTEX
  8
AM_VIS
  5
823
 10
15.8833
 20
3.45267
 30
0.000000
  70
    32
  0
VERTEX
  8
AM_VIS
  5
824
 10
15.8834
 20
3.45264
 30
0.000000
  70
    32
  0
VERTEX
  8
AM_VIS
  5
825
 10
15.8834
 20
3.45261
 30
0.000000
  70
    32
  0
VERTEX
  8
AM_VIS
  5
826
 10
15.8834
 20
3.45258
 30
0.000000
  70
    32
  0
VERTEX
  8
AM_VIS
  5
827
 10
15.8834
 20
3.45255
 30
0.000000
  70
    32
  0
VERTEX
  8
AM_VIS
  5
828
 10
15.8834
 20
3.45252
 30
0.000000
  70
    32
  0
VERTEX
  8
AM_VIS
  5
829
 10
15.8835
 20
3.45250
 30
0.000000
  70
    32
  0
VERTEX
  8
AM_VIS
  5
82A
 10
15.8835
 20
3.45247
 30
0.000000
  70
    32
  0
VERTEX
  8
AM_VIS
  5
82B
 10
15.8835
 20
3.45244
 30
0.000000
  70
    32
  0
VERTEX
  8
AM_VIS
  5
82C
 10
15.8835
 20
3.45241
 30
0.000000
  70
    32
  0
VERTEX
  8
AM_VIS
  5
82D
 10
15.8835
 20
3.45239
 30
0.000000
  70
    32
  0
VERTEX
  8
AM_VIS
  5
82E
 10
15.8835
 20
3.45236
 30
0.000000
  70
    32
  0
VERTEX
  8
AM_VIS
  5
82F
 10
15.8836
 20
3.45234
 30
0.000000
  70
    32
  0
VERTEX
  8
AM_VIS
  5
830
 10
15.8836
 20
3.45231
 30
0.000000
  70
    32
  0
VERTEX
  8
AM_VIS
  5
831
 10
15.8836
 20
3.45229
 30
0.000000
  70
    32
  0
VERTEX
  8
AM_VIS
  5
832
 10
15.8836
 20
3.45226
 30
0.000000
  70
    32
  0
VERTEX
  8
AM_VIS
  5
833
 10
15.8836
 20
3.45224
 30
0.000000
  70
    32
  0
VERTEX
  8
AM_VIS
  5
834
 10
15.8836
 20
3.45221
 30
0.000000
  70
    32
  0
VERTEX
  8
AM_VIS
  5
835
 10
15.8836
 20
3.45219
 30
0.000000
  70
    32
  0
VERTEX
  8
AM_VIS
  5
836
 10
15.8837
 20
3.45217
 30
0.000000
  70
    32
  0
VERTEX
  8
AM_VIS
  5
837
 10
15.8837
 20
3.45214
 30
0.000000
  70
    32
  0
VERTEX
  8
AM_VIS
  5
838
 10
15.8837
 20
3.45212
 30
0.000000
  70
    32
  0
VERTEX
  8
AM_VIS
  5
839
 10
15.8837
 20
3.45210
 30
0.000000
  70
    32
  0
VERTEX
  8
AM_VIS
  5
83A
 10
15.8837
 20
3.45208
 30
0.000000
  70
    32
  0
VERTEX
  8
AM_VIS
  5
83B
 10
15.8837
 20
3.45205
 30
0.000000
  70
    32
  0
VERTEX
  8
AM_VIS
  5
83C
 10
15.8837
 20
3.45203
 30
0.000000
  70
    32
  0
VERTEX
  8
AM_VIS
  5
83D
 10
15.8838
 20
3.45201
 30
0.000000
  70
    32
  0
VERTEX
  8
AM_VIS
  5
83E
 10
15.8838
 20
3.45199
 30
0.000000
  70
    32
  0
VERTEX
  8
AM_VIS
  5
83F
 10
15.8838
 20
3.45197
 30
0.000000
  70
    32
  0
VERTEX
  8
AM_VIS
  5
840
 10
15.8838
 20
3.45195
 30
0.000000
  70
    32
  0
VERTEX
  8
AM_VIS
  5
841
 10
15.8838
 20
3.45193
 30
0.000000
  70
    32
  0
VERTEX
  8
AM_VIS
  5
842
 10
15.8838
 20
3.45191
 30
0.000000
  70
    32
  0
VERTEX
  8
AM_VIS
  5
843
 10
15.8838
 20
3.45189
 30
0.000000
  70
    32
  0
VERTEX
  8
AM_VIS
  5
844
 10
15.8838
 20
3.45187
 30
0.000000
  70
    32
  0
VERTEX
  8
AM_VIS
  5
845
 10
15.8839
 20
3.45186
 30
0.000000
  70
    32
  0
VERTEX
  8
AM_VIS
  5
846
 10
15.8839
 20
3.45184
 30
0.000000
  70
    32
  0
VERTEX
  8
AM_VIS
  5
847
 10
15.8839
 20
3.45182
 30
0.000000
  70
    32
  0
VERTEX
  8
AM_VIS
  5
848
 10
15.8839
 20
3.45180
 30
0.000000
  70
    32
  0
VERTEX
  8
AM_VIS
  5
849
 10
15.8839
 20
3.45179
 30
0.000000
  70
    32
  0
VERTEX
  8
AM_VIS
  5
84A
 10
15.8839
 20
3.45177
 30
0.000000
  70
    32
  0
VERTEX
  8
AM_VIS
  5
84B
 10
15.8839
 20
3.45175
 30
0.000000
  70
    32
  0
VERTEX
  8
AM_VIS
  5
84C
 10
15.8839
 20
3.45174
 30
0.000000
  70
    32
  0
VERTEX
  8
AM_VIS
  5
84D
 10
15.8839
 20
3.45172
 30
0.000000
  70
    32
  0
VERTEX
  8
AM_VIS
  5
84E
 10
15.8839
 20
3.45171
 30
0.000000
  70
    32
  0
VERTEX
  8
AM_VIS
  5
84F
 10
15.8840
 20
3.45169
 30
0.000000
  70
    32
  0
VERTEX
  8
AM_VIS
  5
850
 10
15.8840
 20
3.45168
 30
0.000000
  70
    32
  0
VERTEX
  8
AM_VIS
  5
851
 10
15.8840
 20
3.45166
 30
0.000000
  70
    32
  0
VERTEX
  8
AM_VIS
  5
852
 10
15.8840
 20
3.45165
 30
0.000000
  70
    32
  0
VERTEX
  8
AM_VIS
  5
853
 10
15.8840
 20
3.45163
 30
0.000000
  70
    32
  0
VERTEX
  8
AM_VIS
  5
854
 10
15.8840
 20
3.45162
 30
0.000000
  70
    32
  0
VERTEX
  8
AM_VIS
  5
855
 10
15.8840
 20
3.45161
 30
0.000000
  70
    32
  0
VERTEX
  8
AM_VIS
  5
856
 10
15.8840
 20
3.45160
 30
0.000000
  70
    32
  0
VERTEX
  8
AM_VIS
  5
857
 10
15.8840
 20
3.45158
 30
0.000000
  70
    32
  0
VERTEX
  8
AM_VIS
  5
858
 10
15.8840
 20
3.45157
 30
0.000000
  70
    32
  0
VERTEX
  8
AM_VIS
  5
859
 10
15.8840
 20
3.45156
 30
0.000000
  70
    32
  0
VERTEX
  8
AM_VIS
  5
85A
 10
15.8840
 20
3.45155
 30
0.000000
  70
    32
  0
VERTEX
  8
AM_VIS
  5
85B
 10
15.8841
 20
3.45154
 30
0.000000
  70
    32
  0
VERTEX
  8
AM_VIS
  5
85C
 10
15.8841
 20
3.45153
 30
0.000000
  70
    32
  0
VERTEX
  8
AM_VIS
  5
85D
 10
15.8841
 20
3.45152
 30
0.000000
  70
    32
  0
VERTEX
  8
AM_VIS
  5
85E
 10
15.8841
 20
3.45151
 30
0.000000
  70
    32
  0
VERTEX
  8
AM_VIS
  5
85F
 10
15.8841
 20
3.45150
 30
0.000000
  70
    32
  0
VERTEX
  8
AM_VIS
  5
860
 10
15.8841
 20
3.45149
 30
0.000000
  70
    32
  0
VERTEX
  8
AM_VIS
  5
861
 10
15.8841
 20
3.45148
 30
0.000000
  70
    32
  0
VERTEX
  8
AM_VIS
  5
862
 10
15.8841
 20
3.45147
 30
0.000000
  70
    32
  0
VERTEX
  8
AM_VIS
  5
863
 10
15.8841
 20
3.45146
 30
0.000000
  70
    32
  0
VERTEX
  8
AM_VIS
  5
864
 10
15.8841
 20
3.45146
 30
0.000000
  70
    32
  0
VERTEX
  8
AM_VIS
  5
865
 10
15.8841
 20
3.45145
 30
0.000000
  70
    32
  0
VERTEX
  8
AM_VIS
  5
866
 10
15.8841
 20
3.45144
 30
0.000000
  70
    32
  0
VERTEX
  8
AM_VIS
  5
867
 10
15.8841
 20
3.45143
 30
0.000000
  70
    32
  0
VERTEX
  8
AM_VIS
  5
868
 10
15.8841
 20
3.45143
 30
0.000000
  70
    32
  0
VERTEX
  8
AM_VIS
  5
869
 10
15.8841
 20
3.45142
 30
0.000000
  70
    32
  0
VERTEX
  8
AM_VIS
  5
86A
 10
15.8841
 20
3.45142
 30
0.000000
  70
    32
  0
VERTEX
  8
AM_VIS
  5
86B
 10
15.8841
 20
3.45141
 30
0.000000
  70
    32
  0
VERTEX
  8
AM_VIS
  5
86C
 10
15.8841
 20
3.45141
 30
0.000000
  70
    32
  0
VERTEX
  8
AM_VIS
  5
86D
 10
15.8841
 20
3.45140
 30
0.000000
  70
    32
  0
VERTEX
  8
AM_VIS
  5
86E
 10
15.8841
 20
3.45140
 30
0.000000
  70
    32
  0
VERTEX
  8
AM_VIS
  5
86F
 10
15.8841
 20
3.45139
 30
0.000000
  70
    32
  0
VERTEX
  8
AM_VIS
  5
870
 10
15.8841
 20
3.45139
 30
0.000000
  70
    32
  0
VERTEX
  8
AM_VIS
  5
871
 10
15.8841
 20
3.45139
 30
0.000000
  70
    32
  0
VERTEX
  8
AM_VIS
  5
872
 10
15.8842
 20
3.45138
 30
0.000000
  70
    32
  0
VERTEX
  8
AM_VIS
  5
873
 10
15.8842
 20
3.45138
 30
0.000000
  70
    32
  0
VERTEX
  8
AM_VIS
  5
874
 10
15.8842
 20
3.45138
 30
0.000000
  70
    32
  0
VERTEX
  8
AM_VIS
  5
875
 10
15.8842
 20
3.45138
 30
0.000000
  70
    32
  0
VERTEX
  8
AM_VIS
  5
876
 10
15.8842
 20
3.45137
 30
0.000000
  70
    32
  0
VERTEX
  8
AM_VIS
  5
877
 10
15.8842
 20
3.45137
 30
0.000000
  70
    32
  0
VERTEX
  8
AM_VIS
  5
878
 10
15.8842
 20
3.45137
 30
0.000000
  70
    32
  0
VERTEX
  8
AM_VIS
  5
879
 10
15.8842
 20
3.45137
 30
0.000000
  70
    32
  0
VERTEX
  8
AM_VIS
  5
87A
 10
15.8842
 20
3.45137
 30
0.000000
  70
    32
  0
SEQEND
  8
AM_VIS
  5
87B
  0
LINE
  5
33
  8
AM_VIS
 10
14.228158179178889
 20
1.832632702860387
 30
0.0
 11
15.876995400174669
 21
1.832632702860387
 31
0.0
  0
LINE
  5
34
  8
AM_VIS
 10
15.876995400174669
 20
1.8326327033816709
 30
0.0
 11
15.8851531792494
 21
1.8326327033816709
 31
0.0
  0
ARC
  5
35
  8
AM_VIS
 10
16.064158179178339
 20
1.813732702861097
 30
0.0
 40
0.1799999999991539
 50
104.4775121858145
 51
173.97283343904559
  0
LINE
  5
36
  8
AM_VIS
 10
16.019158179179112
 20
2.0591499951896308
 30
0.0
 11
16.019158179179112
 21
1.9880169534396701
 31
0.0
  0
LINE
  5
37
  8
AM_VIS
 10
16.019158179178898
 20
2.0591499951896308
 30
0.0
 11
16.019158179178898
 21
2.513315410531141
 31
0.0
  0
LINE
  5
38
  8
AM_VIS
 10
16.019158179179112
 20
2.584448452281102
 30
0.0
 11
16.019158179179112
 21
2.513315410531141
 31
0.0
  0
ARC
  5
39
  8
AM_VIS
 10
16.0641581791789
 20
2.758732702860387
 30
0.0
 40
0.1800000000000005
 50
180.0
 51
255.52248781406979
  0
ARC
  5
3A
  8
AM_HID
 10
16.489820795457991
 20
2.2912236149605931
 30
0.0
 40
0.7497558227829165
 50
180.3814134309672
 51
197.86249115412591
  0
ARC
  5
3B
  8
AM_HID
 10
16.489820795457991
 20
2.2812417907601801
 30
0.0
 40
0.7497558227829178
 50
162.13750884587409
 51
179.6185865690328
  0
ARC
  5
3C
  8
AM_VIS
 10
15.056158179178899
 20
3.7550327028603898
 30
0.0
 40
0.8279999999999999
 50
269.99999999999989
 51
89.999999999999957
  0
ARC
  5
3D
  8
AM_VIS
 10
15.056158179178899
 20
3.7550327028603898
 30
0.0
 40
0.8279999999999999
 50
89.999999999999957
 51
269.99999999999989
  0
CIRCLE
  5
3E
  8
AM_VIS
 10
15.056158179178899
 20
3.755032702860388
 30
0.0
 40
0.7200000000000001
  0
ARC
  5
3F
  8
AM_VIS
 10
15.94655570276036
 20
3.282532702860355
 30
0.0
 40
0.1800000000000355
 50
90.000000000001975
 51
110.28272816228591
  0
LINE
  5
40
  8
AM_VIS
 10
16.019158179179112
 20
3.7550327028610888
 30
0.0
 11
16.019158179179112
 21
3.570669762232622
 31
0.0
  0
POLYLINE
  8
AM_HID
  5
87C
  66
     1
 10
0.000000
 20
0.000000
 30
0.000000
  70
     8
  0
VERTEX
  8
AM_HID
  5
87D
 10
15.8770
 20
3.64636
 30
0.000000
  70
    32
  0
VERTEX
  8
AM_HID
  5
87E
 10
15.8771
 20
3.64719
 30
0.000000
  70
    32
  0
VERTEX
  8
AM_HID
  5
87F
 10
15.8772
 20
3.64802
 30
0.000000
  70
    32
  0
VERTEX
  8
AM_HID
  5
880
 10
15.8773
 20
3.64884
 30
0.000000
  70
    32
  0
VERTEX
  8
AM_HID
  5
881
 10
15.8774
 20
3.64967
 30
0.000000
  70
    32
  0
VERTEX
  8
AM_HID
  5
882
 10
15.8775
 20
3.65050
 30
0.000000
  70
    32
  0
VERTEX
  8
AM_HID
  5
883
 10
15.8776
 20
3.65133
 30
0.000000
  70
    32
  0
VERTEX
  8
AM_HID
  5
884
 10
15.8778
 20
3.65216
 30
0.000000
  70
    32
  0
VERTEX
  8
AM_HID
  5
885
 10
15.8779
 20
3.65299
 30
0.000000
  70
    32
  0
VERTEX
  8
AM_HID
  5
886
 10
15.8780
 20
3.65381
 30
0.000000
  70
    32
  0
VERTEX
  8
AM_HID
  5
887
 10
15.8781
 20
3.65464
 30
0.000000
  70
    32
  0
VERTEX
  8
AM_HID
  5
888
 10
15.8782
 20
3.65547
 30
0.000000
  70
    32
  0
VERTEX
  8
AM_HID
  5
889
 10
15.8783
 20
3.65630
 30
0.000000
  70
    32
  0
VERTEX
  8
AM_HID
  5
88A
 10
15.8784
 20
3.65713
 30
0.000000
  70
    32
  0
VERTEX
  8
AM_HID
  5
88B
 10
15.8785
 20
3.65796
 30
0.000000
  70
    32
  0
VERTEX
  8
AM_HID
  5
88C
 10
15.8786
 20
3.65878
 30
0.000000
  70
    32
  0
VERTEX
  8
AM_HID
  5
88D
 10
15.8787
 20
3.65961
 30
0.000000
  70
    32
  0
VERTEX
  8
AM_HID
  5
88E
 10
15.8788
 20
3.66044
 30
0.000000
  70
    32
  0
VERTEX
  8
AM_HID
  5
88F
 10
15.8789
 20
3.66127
 30
0.000000
  70
    32
  0
VERTEX
  8
AM_HID
  5
890
 10
15.8790
 20
3.66210
 30
0.000000
  70
    32
  0
VERTEX
  8
AM_HID
  5
891
 10
15.8791
 20
3.66293
 30
0.000000
  70
    32
  0
VERTEX
  8
AM_HID
  5
892
 10
15.8792
 20
3.66376
 30
0.000000
  70
    32
  0
VERTEX
  8
AM_HID
  5
893
 10
15.8793
 20
3.66458
 30
0.000000
  70
    32
  0
VERTEX
  8
AM_HID
  5
894
 10
15.8794
 20
3.66541
 30
0.000000
  70
    32
  0
VERTEX
  8
AM_HID
  5
895
 10
15.8795
 20
3.66624
 30
0.000000
  70
    32
  0
VERTEX
  8
AM_HID
  5
896
 10
15.8796
 20
3.66707
 30
0.000000
  70
    32
  0
VERTEX
  8
AM_HID
  5
897
 10
15.8797
 20
3.66790
 30
0.000000
  70
    32
  0
VERTEX
  8
AM_HID
  5
898
 10
15.8798
 20
3.66873
 30
0.000000
  70
    32
  0
VERTEX
  8
AM_HID
  5
899
 10
15.8799
 20
3.66956
 30
0.000000
  70
    32
  0
VERTEX
  8
AM_HID
  5
89A
 10
15.8800
 20
3.67039
 30
0.000000
  70
    32
  0
VERTEX
  8
AM_HID
  5
89B
 10
15.8801
 20
3.67122
 30
0.000000
  70
    32
  0
VERTEX
  8
AM_HID
  5
89C
 10
15.8802
 20
3.67206
 30
0.000000
  70
    32
  0
VERTEX
  8
AM_HID
  5
89D
 10
15.8803
 20
3.67289
 30
0.000000
  70
    32
  0
VERTEX
  8
AM_HID
  5
89E
 10
15.8803
 20
3.67372
 30
0.000000
  70
    32
  0
VERTEX
  8
AM_HID
  5
89F
 10
15.8804
 20
3.67455
 30
0.000000
  70
    32
  0
VERTEX
  8
AM_HID
  5
8A0
 10
15.8805
 20
3.67538
 30
0.000000
  70
    32
  0
VERTEX
  8
AM_HID
  5
8A1
 10
15.8806
 20
3.67622
 30
0.000000
  70
    32
  0
VERTEX
  8
AM_HID
  5
8A2
 10
15.8807
 20
3.67705
 30
0.000000
  70
    32
  0
VERTEX
  8
AM_HID
  5
8A3
 10
15.8808
 20
3.67788
 30
0.000000
  70
    32
  0
VERTEX
  8
AM_HID
  5
8A4
 10
15.8809
 20
3.67872
 30
0.000000
  70
    32
  0
VERTEX
  8
AM_HID
  5
8A5
 10
15.8810
 20
3.67955
 30
0.000000
  70
    32
  0
VERTEX
  8
AM_HID
  5
8A6
 10
15.8811
 20
3.68038
 30
0.000000
  70
    32
  0
VERTEX
  8
AM_HID
  5
8A7
 10
15.8811
 20
3.68122
 30
0.000000
  70
    32
  0
VERTEX
  8
AM_HID
  5
8A8
 10
15.8812
 20
3.68205
 30
0.000000
  70
    32
  0
VERTEX
  8
AM_HID
  5
8A9
 10
15.8813
 20
3.68289
 30
0.000000
  70
    32
  0
VERTEX
  8
AM_HID
  5
8AA
 10
15.8814
 20
3.68373
 30
0.000000
  70
    32
  0
VERTEX
  8
AM_HID
  5
8AB
 10
15.8815
 20
3.68456
 30
0.000000
  70
    32
  0
VERTEX
  8
AM_HID
  5
8AC
 10
15.8816
 20
3.68540
 30
0.000000
  70
    32
  0
VERTEX
  8
AM_HID
  5
8AD
 10
15.8816
 20
3.68624
 30
0.000000
  70
    32
  0
VERTEX
  8
AM_HID
  5
8AE
 10
15.8817
 20
3.68707
 30
0.000000
  70
    32
  0
VERTEX
  8
AM_HID
  5
8AF
 10
15.8818
 20
3.68791
 30
0.000000
  70
    32
  0
VERTEX
  8
AM_HID
  5
8B0
 10
15.8819
 20
3.68875
 30
0.000000
  70
    32
  0
VERTEX
  8
AM_HID
  5
8B1
 10
15.8820
 20
3.68959
 30
0.000000
  70
    32
  0
VERTEX
  8
AM_HID
  5
8B2
 10
15.8820
 20
3.69043
 30
0.000000
  70
    32
  0
VERTEX
  8
AM_HID
  5
8B3
 10
15.8821
 20
3.69127
 30
0.000000
  70
    32
  0
VERTEX
  8
AM_HID
  5
8B4
 10
15.8822
 20
3.69211
 30
0.000000
  70
    32
  0
VERTEX
  8
AM_HID
  5
8B5
 10
15.8823
 20
3.69295
 30
0.000000
  70
    32
  0
VERTEX
  8
AM_HID
  5
8B6
 10
15.8824
 20
3.69380
 30
0.000000
  70
    32
  0
VERTEX
  8
AM_HID
  5
8B7
 10
15.8824
 20
3.69464
 30
0.000000
  70
    32
  0
VERTEX
  8
AM_HID
  5
8B8
 10
15.8825
 20
3.69548
 30
0.000000
  70
    32
  0
VERTEX
  8
AM_HID
  5
8B9
 10
15.8826
 20
3.69633
 30
0.000000
  70
    32
  0
VERTEX
  8
AM_HID
  5
8BA
 10
15.8826
 20
3.69717
 30
0.000000
  70
    32
  0
VERTEX
  8
AM_HID
  5
8BB
 10
15.8827
 20
3.69802
 30
0.000000
  70
    32
  0
VERTEX
  8
AM_HID
  5
8BC
 10
15.8828
 20
3.69886
 30
0.000000
  70
    32
  0
VERTEX
  8
AM_HID
  5
8BD
 10
15.8829
 20
3.69971
 30
0.000000
  70
    32
  0
VERTEX
  8
AM_HID
  5
8BE
 10
15.8829
 20
3.70056
 30
0.000000
  70
    32
  0
VERTEX
  8
AM_HID
  5
8BF
 10
15.8830
 20
3.70141
 30
0.000000
  70
    32
  0
VERTEX
  8
AM_HID
  5
8C0
 10
15.8831
 20
3.70226
 30
0.000000
  70
    32
  0
VERTEX
  8
AM_HID
  5
8C1
 10
15.8831
 20
3.70311
 30
0.000000
  70
    32
  0
VERTEX
  8
AM_HID
  5
8C2
 10
15.8832
 20
3.70396
 30
0.000000
  70
    32
  0
VERTEX
  8
AM_HID
  5
8C3
 10
15.8832
 20
3.70481
 30
0.000000
  70
    32
  0
VERTEX
  8
AM_HID
  5
8C4
 10
15.8833
 20
3.70566
 30
0.000000
  70
    32
  0
VERTEX
  8
AM_HID
  5
8C5
 10
15.8834
 20
3.70651
 30
0.000000
  70
    32
  0
VERTEX
  8
AM_HID
  5
8C6
 10
15.8834
 20
3.70737
 30
0.000000
  70
    32
  0
VERTEX
  8
AM_HID
  5
8C7
 10
15.8835
 20
3.70822
 30
0.000000
  70
    32
  0
VERTEX
  8
AM_HID
  5
8C8
 10
15.8836
 20
3.70908
 30
0.000000
  70
    32
  0
VERTEX
  8
AM_HID
  5
8C9
 10
15.8836
 20
3.70993
 30
0.000000
  70
    32
  0
VERTEX
  8
AM_HID
  5
8CA
 10
15.8837
 20
3.71079
 30
0.000000
  70
    32
  0
VERTEX
  8
AM_HID
  5
8CB
 10
15.8837
 20
3.71165
 30
0.000000
  70
    32
  0
VERTEX
  8
AM_HID
  5
8CC
 10
15.8838
 20
3.71251
 30
0.000000
  70
    32
  0
VERTEX
  8
AM_HID
  5
8CD
 10
15.8838
 20
3.71337
 30
0.000000
  70
    32
  0
VERTEX
  8
AM_HID
  5
8CE
 10
15.8839
 20
3.71423
 30
0.000000
  70
    32
  0
VERTEX
  8
AM_HID
  5
8CF
 10
15.8839
 20
3.71509
 30
0.000000
  70
    32
  0
VERTEX
  8
AM_HID
  5
8D0
 10
15.8840
 20
3.71595
 30
0.000000
  70
    32
  0
VERTEX
  8
AM_HID
  5
8D1
 10
15.8840
 20
3.71682
 30
0.000000
  70
    32
  0
VERTEX
  8
AM_HID
  5
8D2
 10
15.8841
 20
3.71768
 30
0.000000
  70
    32
  0
VERTEX
  8
AM_HID
  5
8D3
 10
15.8841
 20
3.71855
 30
0.000000
  70
    32
  0
VERTEX
  8
AM_HID
  5
8D4
 10
15.8842
 20
3.71941
 30
0.000000
  70
    32
  0
VERTEX
  8
AM_HID
  5
8D5
 10
15.8842
 20
3.72028
 30
0.000000
  70
    32
  0
VERTEX
  8
AM_HID
  5
8D6
 10
15.8843
 20
3.72115
 30
0.000000
  70
    32
  0
VERTEX
  8
AM_HID
  5
8D7
 10
15.8843
 20
3.72202
 30
0.000000
  70
    32
  0
VERTEX
  8
AM_HID
  5
8D8
 10
15.8844
 20
3.72289
 30
0.000000
  70
    32
  0
VERTEX
  8
AM_HID
  5
8D9
 10
15.8844
 20
3.72376
 30
0.000000
  70
    32
  0
VERTEX
  8
AM_HID
  5
8DA
 10
15.8844
 20
3.72463
 30
0.000000
  70
    32
  0
VERTEX
  8
AM_HID
  5
8DB
 10
15.8845
 20
3.72551
 30
0.000000
  70
    32
  0
VERTEX
  8
AM_HID
  5
8DC
 10
15.8845
 20
3.72638
 30
0.000000
  70
    32
  0
VERTEX
  8
AM_HID
  5
8DD
 10
15.8846
 20
3.72726
 30
0.000000
  70
    32
  0
VERTEX
  8
AM_HID
  5
8DE
 10
15.8846
 20
3.72813
 30
0.000000
  70
    32
  0
VERTEX
  8
AM_HID
  5
8DF
 10
15.8846
 20
3.72901
 30
0.000000
  70
    32
  0
VERTEX
  8
AM_HID
  5
8E0
 10
15.8847
 20
3.72989
 30
0.000000
  70
    32
  0
VERTEX
  8
AM_HID
  5
8E1
 10
15.8847
 20
3.73077
 30
0.000000
  70
    32
  0
VERTEX
  8
AM_HID
  5
8E2
 10
15.8847
 20
3.73165
 30
0.000000
  70
    32
  0
VERTEX
  8
AM_HID
  5
8E3
 10
15.8848
 20
3.73254
 30
0.000000
  70
    32
  0
VERTEX
  8
AM_HID
  5
8E4
 10
15.8848
 20
3.73342
 30
0.000000
  70
    32
  0
VERTEX
  8
AM_HID
  5
8E5
 10
15.8848
 20
3.73431
 30
0.000000
  70
    32
  0
VERTEX
  8
AM_HID
  5
8E6
 10
15.8848
 20
3.73519
 30
0.000000
  70
    32
  0
VERTEX
  8
AM_HID
  5
8E7
 10
15.8849
 20
3.73608
 30
0.000000
  70
    32
  0
VERTEX
  8
AM_HID
  5
8E8
 10
15.8849
 20
3.73697
 30
0.000000
  70
    32
  0
VERTEX
  8
AM_HID
  5
8E9
 10
15.8849
 20
3.73786
 30
0.000000
  70
    32
  0
VERTEX
  8
AM_HID
  5
8EA
 10
15.8849
 20
3.73875
 30
0.000000
  70
    32
  0
VERTEX
  8
AM_HID
  5
8EB
 10
15.8850
 20
3.73964
 30
0.000000
  70
    32
  0
VERTEX
  8
AM_HID
  5
8EC
 10
15.8850
 20
3.74054
 30
0.000000
  70
    32
  0
VERTEX
  8
AM_HID
  5
8ED
 10
15.8850
 20
3.74143
 30
0.000000
  70
    32
  0
VERTEX
  8
AM_HID
  5
8EE
 10
15.8850
 20
3.74233
 30
0.000000
  70
    32
  0
VERTEX
  8
AM_HID
  5
8EF
 10
15.8850
 20
3.74323
 30
0.000000
  70
    32
  0
VERTEX
  8
AM_HID
  5
8F0
 10
15.8851
 20
3.74413
 30
0.000000
  70
    32
  0
VERTEX
  8
AM_HID
  5
8F1
 10
15.8851
 20
3.74503
 30
0.000000
  70
    32
  0
VERTEX
  8
AM_HID
  5
8F2
 10
15.8851
 20
3.74593
 30
0.000000
  70
    32
  0
VERTEX
  8
AM_HID
  5
8F3
 10
15.8851
 20
3.74684
 30
0.000000
  70
    32
  0
VERTEX
  8
AM_HID
  5
8F4
 10
15.8851
 20
3.74774
 30
0.000000
  70
    32
  0
VERTEX
  8
AM_HID
  5
8F5
 10
15.8851
 20
3.74865
 30
0.000000
  70
    32
  0
VERTEX
  8
AM_HID
  5
8F6
 10
15.8851
 20
3.74955
 30
0.000000
  70
    32
  0
VERTEX
  8
AM_HID
  5
8F7
 10
15.8851
 20
3.75046
 30
0.000000
  70
    32
  0
VERTEX
  8
AM_HID
  5
8F8
 10
15.8851
 20
3.75137
 30
0.000000
  70
    32
  0
VERTEX
  8
AM_HID
  5
8F9
 10
15.8851
 20
3.75229
 30
0.000000
  70
    32
  0
VERTEX
  8
AM_HID
  5
8FA
 10
15.8852
 20
3.75320
 30
0.000000
  70
    32
  0
VERTEX
  8
AM_HID
  5
8FB
 10
15.8852
 20
3.75412
 30
0.000000
  70
    32
  0
VERTEX
  8
AM_HID
  5
8FC
 10
15.8852
 20
3.75503
 30
0.000000
  70
    32
  0
SEQEND
  8
AM_HID
  5
8FD
  0
ARC
  5
42
  8
AM_HID
 10
16.59882593224658
 20
3.722498068162849
 30
0.0
 40
0.8620361477375704
 50
162.61736628898481
 51
167.1556347230362
  0
ARC
  5
43
  8
AM_HID
 10
16.59882593224663
 20
3.7875673375579511
 30
0.0
 40
0.8620361477376271
 50
192.84436527696451
 51
197.3826337110151
  0
POLYLINE
  8
AM_HID
  5
8FE
  66
     1
 10
0.000000
 20
0.000000
 30
0.000000
  70
     8
  0
VERTEX
  8
AM_HID
  5
8FF
 10
15.8852
 20
3.75503
 30
0.000000
  70
    32
  0
VERTEX
  8
AM_HID
  5
900
 10
15.8852
 20
3.75595
 30
0.000000
  70
    32
  0
VERTEX
  8
AM_HID
  5
901
 10
15.8852
 20
3.75686
 30
0.000000
  70
    32
  0
VERTEX
  8
AM_HID
  5
902
 10
15.8851
 20
3.75778
 30
0.000000
  70
    32
  0
VERTEX
  8
AM_HID
  5
903
 10
15.8851
 20
3.75869
 30
0.000000
  70
    32
  0
VERTEX
  8
AM_HID
  5
904
 10
15.8851
 20
3.75960
 30
0.000000
  70
    32
  0
VERTEX
  8
AM_HID
  5
905
 10
15.8851
 20
3.76051
 30
0.000000
  70
    32
  0
VERTEX
  8
AM_HID
  5
906
 10
15.8851
 20
3.76142
 30
0.000000
  70
    32
  0
VERTEX
  8
AM_HID
  5
907
 10
15.8851
 20
3.76232
 30
0.000000
  70
    32
  0
VERTEX
  8
AM_HID
  5
908
 10
15.8851
 20
3.76323
 30
0.000000
  70
    32
  0
VERTEX
  8
AM_HID
  5
909
 10
15.8851
 20
3.76413
 30
0.000000
  70
    32
  0
VERTEX
  8
AM_HID
  5
90A
 10
15.8851
 20
3.76504
 30
0.000000
  70
    32
  0
VERTEX
  8
AM_HID
  5
90B
 10
15.8851
 20
3.76594
 30
0.000000
  70
    32
  0
VERTEX
  8
AM_HID
  5
90C
 10
15.8850
 20
3.76684
 30
0.000000
  70
    32
  0
VERTEX
  8
AM_HID
  5
90D
 10
15.8850
 20
3.76773
 30
0.000000
  70
    32
  0
VERTEX
  8
AM_HID
  5
90E
 10
15.8850
 20
3.76863
 30
0.000000
  70
    32
  0
VERTEX
  8
AM_HID
  5
90F
 10
15.8850
 20
3.76953
 30
0.000000
  70
    32
  0
VERTEX
  8
AM_HID
  5
910
 10
15.8850
 20
3.77042
 30
0.000000
  70
    32
  0
VERTEX
  8
AM_HID
  5
911
 10
15.8849
 20
3.77131
 30
0.000000
  70
    32
  0
VERTEX
  8
AM_HID
  5
912
 10
15.8849
 20
3.77220
 30
0.000000
  70
    32
  0
VERTEX
  8
AM_HID
  5
913
 10
15.8849
 20
3.77310
 30
0.000000
  70
    32
  0
VERTEX
  8
AM_HID
  5
914
 10
15.8849
 20
3.77398
 30
0.000000
  70
    32
  0
VERTEX
  8
AM_HID
  5
915
 10
15.8848
 20
3.77487
 30
0.000000
  70
    32
  0
VERTEX
  8
AM_HID
  5
916
 10
15.8848
 20
3.77576
 30
0.000000
  70
    32
  0
VERTEX
  8
AM_HID
  5
917
 10
15.8848
 20
3.77664
 30
0.000000
  70
    32
  0
VERTEX
  8
AM_HID
  5
918
 10
15.8848
 20
3.77753
 30
0.000000
  70
    32
  0
VERTEX
  8
AM_HID
  5
919
 10
15.8847
 20
3.77841
 30
0.000000
  70
    32
  0
VERTEX
  8
AM_HID
  5
91A
 10
15.8847
 20
3.77929
 30
0.000000
  70
    32
  0
VERTEX
  8
AM_HID
  5
91B
 10
15.8847
 20
3.78017
 30
0.000000
  70
    32
  0
VERTEX
  8
AM_HID
  5
91C
 10
15.8846
 20
3.78105
 30
0.000000
  70
    32
  0
VERTEX
  8
AM_HID
  5
91D
 10
15.8846
 20
3.78193
 30
0.000000
  70
    32
  0
VERTEX
  8
AM_HID
  5
91E
 10
15.8846
 20
3.78281
 30
0.000000
  70
    32
  0
VERTEX
  8
AM_HID
  5
91F
 10
15.8845
 20
3.78368
 30
0.000000
  70
    32
  0
VERTEX
  8
AM_HID
  5
920
 10
15.8845
 20
3.78456
 30
0.000000
  70
    32
  0
VERTEX
  8
AM_HID
  5
921
 10
15.8844
 20
3.78543
 30
0.000000
  70
    32
  0
VERTEX
  8
AM_HID
  5
922
 10
15.8844
 20
3.78630
 30
0.000000
  70
    32
  0
VERTEX
  8
AM_HID
  5
923
 10
15.8844
 20
3.78718
 30
0.000000
  70
    32
  0
VERTEX
  8
AM_HID
  5
924
 10
15.8843
 20
3.78805
 30
0.000000
  70
    32
  0
VERTEX
  8
AM_HID
  5
925
 10
15.8843
 20
3.78892
 30
0.000000
  70
    32
  0
VERTEX
  8
AM_HID
  5
926
 10
15.8842
 20
3.78978
 30
0.000000
  70
    32
  0
VERTEX
  8
AM_HID
  5
927
 10
15.8842
 20
3.79065
 30
0.000000
  70
    32
  0
VERTEX
  8
AM_HID
  5
928
 10
15.8841
 20
3.79152
 30
0.000000
  70
    32
  0
VERTEX
  8
AM_HID
  5
929
 10
15.8841
 20
3.79238
 30
0.000000
  70
    32
  0
VERTEX
  8
AM_HID
  5
92A
 10
15.8840
 20
3.79325
 30
0.000000
  70
    32
  0
VERTEX
  8
AM_HID
  5
92B
 10
15.8840
 20
3.79411
 30
0.000000
  70
    32
  0
VERTEX
  8
AM_HID
  5
92C
 10
15.8839
 20
3.79497
 30
0.000000
  70
    32
  0
VERTEX
  8
AM_HID
  5
92D
 10
15.8839
 20
3.79584
 30
0.000000
  70
    32
  0
VERTEX
  8
AM_HID
  5
92E
 10
15.8838
 20
3.79670
 30
0.000000
  70
    32
  0
VERTEX
  8
AM_HID
  5
92F
 10
15.8838
 20
3.79756
 30
0.000000
  70
    32
  0
VERTEX
  8
AM_HID
  5
930
 10
15.8837
 20
3.79842
 30
0.000000
  70
    32
  0
VERTEX
  8
AM_HID
  5
931
 10
15.8837
 20
3.79927
 30
0.000000
  70
    32
  0
VERTEX
  8
AM_HID
  5
932
 10
15.8836
 20
3.80013
 30
0.000000
  70
    32
  0
VERTEX
  8
AM_HID
  5
933
 10
15.8836
 20
3.80099
 30
0.000000
  70
    32
  0
VERTEX
  8
AM_HID
  5
934
 10
15.8835
 20
3.80184
 30
0.000000
  70
    32
  0
VERTEX
  8
AM_HID
  5
935
 10
15.8834
 20
3.80270
 30
0.000000
  70
    32
  0
VERTEX
  8
AM_HID
  5
936
 10
15.8834
 20
3.80355
 30
0.000000
  70
    32
  0
VERTEX
  8
AM_HID
  5
937
 10
15.8833
 20
3.80440
 30
0.000000
  70
    32
  0
VERTEX
  8
AM_HID
  5
938
 10
15.8832
 20
3.80526
 30
0.000000
  70
    32
  0
VERTEX
  8
AM_HID
  5
939
 10
15.8832
 20
3.80611
 30
0.000000
  70
    32
  0
VERTEX
  8
AM_HID
  5
93A
 10
15.8831
 20
3.80696
 30
0.000000
  70
    32
  0
VERTEX
  8
AM_HID
  5
93B
 10
15.8831
 20
3.80781
 30
0.000000
  70
    32
  0
VERTEX
  8
AM_HID
  5
93C
 10
15.8830
 20
3.80866
 30
0.000000
  70
    32
  0
VERTEX
  8
AM_HID
  5
93D
 10
15.8829
 20
3.80951
 30
0.000000
  70
    32
  0
VERTEX
  8
AM_HID
  5
93E
 10
15.8829
 20
3.81035
 30
0.000000
  70
    32
  0
VERTEX
  8
AM_HID
  5
93F
 10
15.8828
 20
3.81120
 30
0.000000
  70
    32
  0
VERTEX
  8
AM_HID
  5
940
 10
15.8827
 20
3.81205
 30
0.000000
  70
    32
  0
VERTEX
  8
AM_HID
  5
941
 10
15.8826
 20
3.81289
 30
0.000000
  70
    32
  0
VERTEX
  8
AM_HID
  5
942
 10
15.8826
 20
3.81374
 30
0.000000
  70
    32
  0
VERTEX
  8
AM_HID
  5
943
 10
15.8825
 20
3.81458
 30
0.000000
  70
    32
  0
VERTEX
  8
AM_HID
  5
944
 10
15.8824
 20
3.81543
 30
0.000000
  70
    32
  0
VERTEX
  8
AM_HID
  5
945
 10
15.8824
 20
3.81627
 30
0.000000
  70
    32
  0
VERTEX
  8
AM_HID
  5
946
 10
15.8823
 20
3.81711
 30
0.000000
  70
    32
  0
VERTEX
  8
AM_HID
  5
947
 10
15.8822
 20
3.81795
 30
0.000000
  70
    32
  0
VERTEX
  8
AM_HID
  5
948
 10
15.8821
 20
3.81879
 30
0.000000
  70
    32
  0
VERTEX
  8
AM_HID
  5
949
 10
15.8820
 20
3.81963
 30
0.000000
  70
    32
  0
VERTEX
  8
AM_HID
  5
94A
 10
15.8820
 20
3.82047
 30
0.000000
  70
    32
  0
VERTEX
  8
AM_HID
  5
94B
 10
15.8819
 20
3.82131
 30
0.000000
  70
    32
  0
VERTEX
  8
AM_HID
  5
94C
 10
15.8818
 20
3.82215
 30
0.000000
  70
    32
  0
VERTEX
  8
AM_HID
  5
94D
 10
15.8817
 20
3.82299
 30
0.000000
  70
    32
  0
VERTEX
  8
AM_HID
  5
94E
 10
15.8816
 20
3.82383
 30
0.000000
  70
    32
  0
VERTEX
  8
AM_HID
  5
94F
 10
15.8816
 20
3.82467
 30
0.000000
  70
    32
  0
VERTEX
  8
AM_HID
  5
950
 10
15.8815
 20
3.82550
 30
0.000000
  70
    32
  0
VERTEX
  8
AM_HID
  5
951
 10
15.8814
 20
3.82634
 30
0.000000
  70
    32
  0
VERTEX
  8
AM_HID
  5
952
 10
15.8813
 20
3.82718
 30
0.000000
  70
    32
  0
VERTEX
  8
AM_HID
  5
953
 10
15.8812
 20
3.82801
 30
0.000000
  70
    32
  0
VERTEX
  8
AM_HID
  5
954
 10
15.8811
 20
3.82885
 30
0.000000
  70
    32
  0
VERTEX
  8
AM_HID
  5
955
 10
15.8811
 20
3.82968
 30
0.000000
  70
    32
  0
VERTEX
  8
AM_HID
  5
956
 10
15.8810
 20
3.83052
 30
0.000000
  70
    32
  0
VERTEX
  8
AM_HID
  5
957
 10
15.8809
 20
3.83135
 30
0.000000
  70
    32
  0
VERTEX
  8
AM_HID
  5
958
 10
15.8808
 20
3.83218
 30
0.000000
  70
    32
  0
VERTEX
  8
AM_HID
  5
959
 10
15.8807
 20
3.83302
 30
0.000000
  70
    32
  0
VERTEX
  8
AM_HID
  5
95A
 10
15.8806
 20
3.83385
 30
0.000000
  70
    32
  0
VERTEX
  8
AM_HID
  5
95B
 10
15.8805
 20
3.83468
 30
0.000000
  70
    32
  0
VERTEX
  8
AM_HID
  5
95C
 10
15.8804
 20
3.83551
 30
0.000000
  70
    32
  0
VERTEX
  8
AM_HID
  5
95D
 10
15.8803
 20
3.83635
 30
0.000000
  70
    32
  0
VERTEX
  8
AM_HID
  5
95E
 10
15.8803
 20
3.83718
 30
0.000000
  70
    32
  0
VERTEX
  8
AM_HID
  5
95F
 10
15.8802
 20
3.83801
 30
0.000000
  70
    32
  0
VERTEX
  8
AM_HID
  5
960
 10
15.8801
 20
3.83884
 30
0.000000
  70
    32
  0
VERTEX
  8
AM_HID
  5
961
 10
15.8800
 20
3.83967
 30
0.000000
  70
    32
  0
VERTEX
  8
AM_HID
  5
962
 10
15.8799
 20
3.84050
 30
0.000000
  70
    32
  0
VERTEX
  8
AM_HID
  5
963
 10
15.8798
 20
3.84133
 30
0.000000
  70
    32
  0
VERTEX
  8
AM_HID
  5
964
 10
15.8797
 20
3.84216
 30
0.000000
  70
    32
  0
VERTEX
  8
AM_HID
  5
965
 10
15.8796
 20
3.84299
 30
0.000000
  70
    32
  0
VERTEX
  8
AM_HID
  5
966
 10
15.8795
 20
3.84382
 30
0.000000
  70
    32
  0
VERTEX
  8
AM_HID
  5
967
 10
15.8794
 20
3.84465
 30
0.000000
  70
    32
  0
VERTEX
  8
AM_HID
  5
968
 10
15.8793
 20
3.84548
 30
0.000000
  70
    32
  0
VERTEX
  8
AM_HID
  5
969
 10
15.8792
 20
3.84631
 30
0.000000
  70
    32
  0
VERTEX
  8
AM_HID
  5
96A
 10
15.8791
 20
3.84714
 30
0.000000
  70
    32
  0
VERTEX
  8
AM_HID
  5
96B
 10
15.8790
 20
3.84797
 30
0.000000
  70
    32
  0
VERTEX
  8
AM_HID
  5
96C
 10
15.8789
 20
3.84880
 30
0.000000
  70
    32
  0
VERTEX
  8
AM_HID
  5
96D
 10
15.8788
 20
3.84962
 30
0.000000
  70
    32
  0
VERTEX
  8
AM_HID
  5
96E
 10
15.8787
 20
3.85045
 30
0.000000
  70
    32
  0
VERTEX
  8
AM_HID
  5
96F
 10
15.8786
 20
3.85128
 30
0.000000
  70
    32
  0
VERTEX
  8
AM_HID
  5
970
 10
15.8785
 20
3.85211
 30
0.000000
  70
    32
  0
VERTEX
  8
AM_HID
  5
971
 10
15.8784
 20
3.85294
 30
0.000000
  70
    32
  0
VERTEX
  8
AM_HID
  5
972
 10
15.8783
 20
3.85377
 30
0.000000
  70
    32
  0
VERTEX
  8
AM_HID
  5
973
 10
15.8782
 20
3.85459
 30
0.000000
  70
    32
  0
VERTEX
  8
AM_HID
  5
974
 10
15.8781
 20
3.85542
 30
0.000000
  70
    32
  0
VERTEX
  8
AM_HID
  5
975
 10
15.8780
 20
3.85625
 30
0.000000
  70
    32
  0
VERTEX
  8
AM_HID
  5
976
 10
15.8779
 20
3.85708
 30
0.000000
  70
    32
  0
VERTEX
  8
AM_HID
  5
977
 10
15.8778
 20
3.85791
 30
0.000000
  70
    32
  0
VERTEX
  8
AM_HID
  5
978
 10
15.8776
 20
3.85874
 30
0.000000
  70
    32
  0
VERTEX
  8
AM_HID
  5
979
 10
15.8775
 20
3.85956
 30
0.000000
  70
    32
  0
VERTEX
  8
AM_HID
  5
97A
 10
15.8774
 20
3.86039
 30
0.000000
  70
    32
  0
VERTEX
  8
AM_HID
  5
97B
 10
15.8773
 20
3.86122
 30
0.000000
  70
    32
  0
VERTEX
  8
AM_HID
  5
97C
 10
15.8772
 20
3.86205
 30
0.000000
  70
    32
  0
VERTEX
  8
AM_HID
  5
97D
 10
15.8771
 20
3.86288
 30
0.000000
  70
    32
  0
VERTEX
  8
AM_HID
  5
97E
 10
15.8770
 20
3.86371
 30
0.000000
  70
    32
  0
SEQEND
  8
AM_HID
  5
97F
  0
ARC
  5
45
  8
AM_VIS
 10
15.94655570276036
 20
4.2275327028603851
 30
0.0
 40
0.1799999999999981
 50
249.71727183771199
 51
270.0
  0
LINE
  5
46
  8
AM_VIS
 10
16.019158179178891
 20
3.4625327028603912
 30
0.0
 11
16.019158179178891
 21
3.570669762232622
 31
0.0
  0
LINE
  5
47
  8
AM_VIS
 10
16.019158179178891
 20
3.9393956434881559
 30
0.0
 11
16.019158179178891
 21
4.047532702860388
 31
0.0
  0
LINE
  5
48
  8
AM_VIS
 10
16.019158179179112
 20
3.9393956434881559
 30
0.0
 11
16.019158179179112
 21
3.755032702859689
 31
0.0
  0
LINE
  5
49
  8
AM_VIS
 10
15.88415817917889
 20
4.7513327028603882
 30
0.0
 11
15.88415817917889
 21
4.0586938771984551
 31
0.0
  0
LINE
  5
4A
  8
AM_VIS
 10
14.228158179178889
 20
5.6774327028603881
 30
0.0
 11
14.228158179178889
 21
3.7550327028603889
 31
0.0
  0
LINE
  5
4B
  8
AM_HID
 10
15.776158179178889
 20
5.448832702860388
 30
0.0
 11
16.019158179178891
 21
5.448832702860388
 31
0.0
  0
LINE
  5
4C
  8
AM_HID
 10
15.776158179178889
 20
4.9988327028603878
 30
0.0
 11
16.019158179178891
 21
4.9988327028603878
 31
0.0
  0
LINE
  5
4D
  8
AM_VIS
 10
15.88415817917889
 20
3.451371528522325
 30
0.0
 11
15.88415817917889
 21
2.7587327028603861
 31
0.0
  0
LINE
  5
4E
  8
AM_VIS
 10
14.228158179178889
 20
3.7550327028603898
 30
0.0
 11
14.228158179178889
 21
1.832632702860387
 31
0.0
  0
LINE
  5
4F
  8
AM_HID
 10
16.019158179178891
 20
2.0612327028603858
 30
0.0
 11
15.776158179178889
 21
2.0612327028603858
 31
0.0
  0
LINE
  5
50
  8
AM_HID
 10
16.019158179178891
 20
2.511232702860386
 30
0.0
 11
15.776158179178889
 21
2.511232702860386
 31
0.0
  0
LINE
  5
51
  8
AM_HID
 10
14.33615817917889
 20
3.7550327028603898
 30
0.0
 11
14.33615817917889
 21
5.6774327028603881
 31
0.0
  0
LINE
  5
52
  8
AM_HID
 10
15.776158179178889
 20
3.9800327028603908
 30
0.0
 11
15.776158179178889
 21
4.9988327028603878
 31
0.0
  0
LINE
  5
53
  8
AM_HID
 10
15.776158179178889
 20
5.448832702860388
 30
0.0
 11
15.776158179178889
 21
5.6774327028603881
 31
0.0
  0
LINE
  5
54
  8
AM_HID
 10
14.33615817917889
 20
1.832632702860387
 30
0.0
 11
14.33615817917889
 21
3.7550327028603898
 31
0.0
  0
LINE
  5
55
  8
AM_HID
 10
15.776158179178889
 20
1.832632702860387
 30
0.0
 11
15.776158179178889
 21
2.0612327028603872
 31
0.0
  0
LINE
  5
56
  8
AM_HID
 10
15.776158179178889
 20
2.511232702860386
 30
0.0
 11
15.776158179178889
 21
3.5300327028603911
 31
0.0
  0
LINE
  5
57
  8
AM_VIS
 10
15.94655570276036
 20
3.4625327028603912
 30
0.0
 11
16.019158179178891
 21
3.4625327028603912
 31
0.0
  0
LINE
  5
58
  8
AM_VIS
 10
16.019158179178891
 20
4.047532702860388
 30
0.0
 11
15.94655570276036
 21
4.047532702860388
 31
0.0
  0
LINE
  5
59
  8
AM_HID
 10
15.776158179178889
 20
3.9800327028603908
 30
0.0
 11
16.019158179178891
 21
3.9800327028603908
 31
0.0
  0
LINE
  5
5A
  8
AM_HID
 10
15.776158179178889
 20
3.5300327028603911
 30
0.0
 11
16.019158179178891
 21
3.5300327028603911
 31
0.0
  0
INSERT
  5
174
  8
0
  2
*U7
 10
0.0
 20
0.0
 30
0.0
  0
INSERT
  5
175
  8
0
  2
*U8
 10
0.0
 20
0.0
 30
0.0
  0
LINE
  5
177
  8
0
 10
14.183158179178889
 20
5.6774327028603881
 30
0.0
 11
13.375720656779279
 21
5.6774327028603881
 31
0.0
  0
LINE
  5
178
  8
0
 10
14.183158179178889
 20
1.832632702860387
 30
0.0
 11
13.375720656779279
 21
1.832632702860387
 31
0.0
  0
LINE
  5
179
  8
0
 10
13.505320656779279
 20
5.5874327028603883
 30
0.0
 11
13.505320656779279
 21
3.9998327028603882
 31
0.0
  0
LINE
  5
17A
  8
0
 10
13.505320656779279
 20
1.9226327028603869
 30
0.0
 11
13.505320656779279
 21
3.510232702860387
 31
0.0
  0
SOLID
  5
17B
  8
0
 10
13.49032065677928
 20
5.5874327028603883
 30
0.0
 11
13.52032065677928
 21
5.5874327028603883
 31
0.0
 12
13.505320656779279
 22
5.6774327028603881
 32
0.0
 13
13.505320656779279
 23
5.6774327028603881
 33
0.0
  0
SOLID
  5
17C
  8
0
 10
13.49032065677928
 20
1.9226327028603869
 30
0.0
 11
13.52032065677928
 21
1.9226327028603869
 31
0.0
 12
13.505320656779279
 22
1.832632702860387
 32
0.0
 13
13.505320656779279
 23
1.832632702860387
 33
0.0
  0
INSERT
  5
17D
  8
0
  2
*U9
 10
0.0
 20
0.0
 30
0.0
  0
ENDSEC
  0
EOF
