  0
SECTION
  2
HEADER
  9
$ACADVER
  1
AC1009
  9
$INSBASE
 10
0.0
 20
0.0
 30
0.0
  9
$EXTMIN
 10
-1.2037500000002681
 20
-2.1318668810561552
 30
0.0
  9
$EXTMAX
 10
2.7000000000000002
 20
1.035000000000001
 30
0.0
  9
$LIMMIN
 10
0.0
 20
0.0
  9
$LIMMAX
 10
12.0
 20
9.0
  9
$ORTHOMODE
 70
     1
  9
$REGENMODE
 70
     0
  9
$FILLMODE
 70
     1
  9
$QTEXTMODE
 70
     0
  9
$MIRRTEXT
 70
     0
  9
$DRAGMODE
 70
     2
  9
$LTSCALE
 40
1.0
  9
$OSMODE
 70
    55
  9
$ATTMODE
 70
     1
  9
$TEXTSIZE
 40
0.2
  9
$TRACEWID
 40
0.05
  9
$TEXTSTYLE
  7
STANDARD
  9
$CLAYER
  8
0
  9
$CELTYPE
  6
BYLAYER
  9
$CECOLOR
 62
   256
  9
$DIMSCALE
 40
1.0
  9
$DIMASZ
 40
0.125
  9
$DIMEXO
 40
0.0625
  9
$DIMDLI
 40
0.38
  9
$DIMRND
 40
0.0
  9
$DIMDLE
 40
0.0
  9
$DIMEXE
 40
0.18
  9
$DIMTP
 40
0.0
  9
$DIMTM
 40
0.0
  9
$DIMTXT
 40
0.09375
  9
$DIMCEN
 40
-0.125
  9
$DIMTSZ
 40
0.0
  9
$DIMTOL
 70
     0
  9
$DIMLIM
 70
     0
  9
$DIMTIH
 70
     0
  9
$DIMTOH
 70
     0
  9
$DIMSE1
 70
     0
  9
$DIMSE2
 70
     0
  9
$DIMTAD
 70
     0
  9
$DIMZIN
 70
     3
  9
$DIMBLK
  1

  9
$DIMASO
 70
     0
  9
$DIMSHO
 70
     1
  9
$DIMPOST
  1

  9
$DIMAPOST
  1

  9
$DIMALT
 70
     0
  9
$DIMALTD
 70
     2
  9
$DIMALTF
 40
25.399999999999999
  9
$DIMLFAC
 40
1.0
  9
$DIMTOFL
 70
     1
  9
$DIMTVP
 40
0.0
  9
$DIMTIX
 70
     0
  9
$DIMSOXD
 70
     0
  9
$DIMSAH
 70
     0
  9
$DIMBLK1
  1

  9
$DIMBLK2
  1

  9
$DIMSTYLE
  2
STANDARD
  9
$DIMCLRD
 70
     0
  9
$DIMCLRE
 70
     0
  9
$DIMCLRT
 70
     0
  9
$DIMTFAC
 40
1.0
  9
$DIMGAP
 40
0.09
  9
$LUNITS
 70
     4
  9
$LUPREC
 70
     4
  9
$SKETCHINC
 40
0.1
  9
$FILLETRAD
 40
0.0
  9
$AUNITS
 70
     0
  9
$AUPREC
 70
     4
  9
$MENU
  1
.
  9
$ELEVATION
 40
0.0
  9
$PELEVATION
 40
0.0
  9
$THICKNESS
 40
0.0
  9
$LIMCHECK
 70
     0
  9
$BLIPMODE
 70
     0
  9
$CHAMFERA
 40
0.125
  9
$CHAMFERB
 40
0.5
  9
$SKPOLY
 70
     0
  9
$TDCREATE
 40
2451086.9109346061
  9
$TDUPDATE
 40
2453913.5664148838
  9
$TDINDWG
 40
0.0783372454
  9
$TDUSRTIMER
 40
0.0783372454
  9
$USRTIMER
 70
     1
  9
$ANGBASE
 50
0.0
  9
$ANGDIR
 70
     0
  9
$PDMODE
 70
    34
  9
$PDSIZE
 40
3.0
  9
$PLINEWID
 40
0.0
  9
$COORDS
 70
     1
  9
$SPLFRAME
 70
     0
  9
$SPLINETYPE
 70
     6
  9
$SPLINESEGS
 70
     8
  9
$ATTDIA
 70
     0
  9
$ATTREQ
 70
     1
  9
$HANDLING
 70
     1
  9
$HANDSEED
  5
283
  9
$SURFTAB1
 70
     6
  9
$SURFTAB2
 70
     6
  9
$SURFTYPE
 70
     6
  9
$SURFU
 70
     6
  9
$SURFV
 70
     6
  9
$UCSNAME
  2

  9
$UCSORG
 10
0.0
 20
0.0
 30
0.0
  9
$UCSXDIR
 10
1.0
 20
0.0
 30
0.0
  9
$UCSYDIR
 10
0.0
 20
1.0
 30
0.0
  9
$PUCSNAME
  2

  9
$PUCSORG
 10
0.0
 20
0.0
 30
0.0
  9
$PUCSXDIR
 10
1.0
 20
0.0
 30
0.0
  9
$PUCSYDIR
 10
0.0
 20
1.0
 30
0.0
  9
$USERI1
 70
     0
  9
$USERI2
 70
     0
  9
$USERI3
 70
     0
  9
$USERI4
 70
     0
  9
$USERI5
 70
     0
  9
$USERR1
 40
0.0
  9
$USERR2
 40
0.0
  9
$USERR3
 40
0.0
  9
$USERR4
 40
0.0
  9
$USERR5
 40
0.0
  9
$WORLDVIEW
 70
     1
  9
$SHADEDGE
 70
     3
  9
$SHADEDIF
 70
    70
  9
$TILEMODE
 70
     1
  9
$MAXACTVP
 70
    48
  9
$PLIMCHECK
 70
     0
  9
$PEXTMIN
 10
2.1554722257462231
 20
2.691778090652583
 30
0.0
  9
$PEXTMAX
 10
6.9136791283300161
 20
6.1198076433046182
 30
0.0
  9
$PLIMMIN
 10
-0.1579164520023376
 20
-0.2812499887361301
  9
$PLIMMAX
 10
10.84208330770177
 20
8.2187497709679782
  9
$UNITMODE
 70
     0
  9
$VISRETAIN
 70
     1
  9
$PLINEGEN
 70
     0
  9
$PSLTSCALE
 70
     1
  0
ENDSEC
  0
SECTION
  2
TABLES
  0
TABLE
  2
VPORT
 70
     2
  0
VPORT
  2
*ACTIVE
 70
     0
 10
0.0
 20
0.0
 11
1.0
 21
1.0
 12
-3.6610930531088441
 22
-4.9543539530925456
 13
0.0
 23
0.0
 14
0.5
 24
0.5
 15
0.5
 25
0.5
 16
0.0
 26
0.0
 36
1.0
 17
5.0339939777538847
 27
4.4057928719785986
 37
0.0
 40
3.2030190372435161
 41
2.1654275092936799
 42
50.0
 43
0.0
 44
0.0
 50
0.0
 51
0.0
 71
     0
 72
   100
 73
     1
 74
     1
 75
     0
 76
     0
 77
     0
 78
     0
  0
ENDTAB
  0
TABLE
  2
LTYPE
 70
    18
  0
LTYPE
  2
CONTINUOUS
 70
     0
  3
Solid line
 72
    65
 73
     0
 40
0.0
  0
LTYPE
  2
HIDDEN
 70
     0
  3
Hidden __ __ __ __ __ __ __ __ __ __ __ __ __ _
 72
    65
 73
     2
 40
0.375
 49
0.25
 49
-0.125
  0
LTYPE
  2
PHANTOM2
 70
     0
  3
Phantom (.5x) ___ _ _ ___ _ _ ___ _ _ ___ _ _
 72
    65
 73
     6
 40
1.25
 49
0.625
 49
-0.125
 49
0.125
 49
-0.125
 49
0.125
 49
-0.125
  0
LTYPE
  2
CENTER
 70
     0
  3
Center ____ _ ____ _ ____ _ ____ _ ____ _ ____
 72
    65
 73
     4
 40
2.0
 49
1.25
 49
-0.25
 49
0.25
 49
-0.25
  0
LTYPE
  2
ASULTYPE
 70
     0
  3
Solid line
 72
    65
 73
     2
 40
3.0
 49
2.5
 49
0.5
  0
LTYPE
  2
ASVLTYPE
 70
     0
  3
__ __ __ __ __ __ __ __ __ __ __ __ __ __ __ __ __ __ __ __ __
 72
    65
 73
     2
 40
0.75
 49
0.5
 49
-0.25
  0
LTYPE
  2
AM_ISO02W050
 70
     0
  3
__ __ __ __ __ __ __ __ __ __ __ __ __ __ __
 72
    65
 73
     2
 40
7.5
 49
6.0
 49
-1.5
  0
LTYPE
  2
AM_ISO08W050
 70
     0
  3
____ . ____ . ____ . ____ . ____ . ____ . ____
 72
    65
 73
     4
 40
18.0
 49
12.0
 49
-1.5
 49
3.0
 49
-1.5
  0
LTYPE
  2
AM_ISO09W050
 70
     0
  3
_____ . . _____ . . _____ . . ____ .. ____
 72
    65
 73
     6
 40
22.5
 49
12.0
 49
-1.5
 49
3.0
 49
-1.5
 49
3.0
 49
-1.5
  0
LTYPE
  2
AMCONSTR
 70
     0
  3
_______________________
 72
    65
 73
     2
 40
9999.0
 49
9999.0
 49
0.0
  0
LTYPE
  2
AM_ISO08W050X2
 70
     0
  3
__ . __ . __ . __ . __ . __
 72
    65
 73
     4
 40
9.0
 49
6.0
 49
-0.75
 49
1.5
 49
-0.75
  0
LTYPE
  2
AM_ISO02W050X2
 70
     0
  3
 _ _ _ _ _ _ _ _ _ _ _ _
 72
    65
 73
     2
 40
3.75
 49
3.0
 49
-0.75
  0
LTYPE
  2
AMZIGZAG
 70
     0
  3
/\/-/\/-/\/-/\/-/\/-/\/
 72
    65
 73
     2
 40
11.0001
 49
0.0001
 49
-11.0
  0
LTYPE
  2
CENTER2
 70
     0
  3
Center (.5x) ___ _ ___ _ ___ _ ___ _ ___ _ ___
 72
    65
 73
     4
 40
1.125
 49
0.75
 49
-0.125
 49
0.125
 49
-0.125
  0
LTYPE
  2
HIDDEN2
 70
     0
  3
Hidden (.5x) _ _ _ _ _ _ _ _ _ _ _ _ _ _ _ _ _
 72
    65
 73
     2
 40
0.1875
 49
0.125
 49
-0.0625
  0
LTYPE
  2
AMZIGZAG2
 70
     0
  3
/\/-/\/-/\/-/\/-/\/-/\/
 72
    65
 73
     2
 40
0.4401
 49
0.0001
 49
-0.4400000000000001
  0
LTYPE
  2
ACANSTGB
 70
     0
  3
__ . . __ . .
 72
    65
 73
     6
 40
0.35433070866
 49
0.15748031496
 49
-0.03937007874
 49
0.03937007874
 49
-0.03937007874
 49
0.03937007874
 49
-0.03937007874
  0
LTYPE
  2
ACANSTGL
 70
     0
  3
_ _ _ _ _
 72
    65
 73
     2
 40
0.11811023622
 49
0.07874015748
 49
-0.03937007874
  0
ENDTAB
  0
TABLE
  2
LAYER
 70
     4
  0
LAYER
  2
0
 70
     0
 62
     7
  6
CONTINUOUS
  0
LAYER
  2
KEE16-7
 70
     0
 62
     7
  6
CONTINUOUS
  0
LAYER
  2
AM_VIS
 70
     0
 62
     7
  6
CONTINUOUS
  0
LAYER
  2
AM_HID
 70
     0
 62
     7
  6
HIDDEN
  0
ENDTAB
  0
TABLE
  2
STYLE
 70
     4
  0
STYLE
  2
STANDARD
 70
     0
 40
0.0
 41
1.0
 50
0.0
 71
     0
 42
0.2
  3
txt
  4

  0
STYLE
  2

 70
     1
 40
0.0
 41
1.0
 50
0.0
 71
     0
 42
0.2
  3
ltypeshp.shx
  4

  0
STYLE
  2
ACANSTS
 70
     0
 40
1.0
 41
1.0
 50
0.0
 71
     0
 42
0.2
  3
romans.shx
  4

  0
STYLE
  2
ACANSGDT
 70
     0
 40
0.0
 41
1.0
 50
0.0
 71
     0
 42
0.2
  3
amgdtans.shx
  4

  0
ENDTAB
  0
TABLE
  2
VIEW
 70
     0
  0
ENDTAB
  0
TABLE
  2
UCS
 70
     0
  0
ENDTAB
  0
TABLE
  2
APPID
 70
    13
  0
APPID
  2
ACAD
 70
     0
  0
APPID
  2
GENIUS_GENDIM_13
 70
     0
  0
APPID
  2
GENIUS_GENDTOL_13
 70
     0
  0
APPID
  2
GENIUS_GE3DTOL_13
 70
     0
  0
APPID
  2
MCAD_NO_VIS
 70
     0
  0
APPID
  2
ACAD_TEMP_GRAPHIC
 70
     0
  0
APPID
  2
AD_DRAW
 70
     0
  0
APPID
  2
ACATTRIBSERVICES
 70
     0
  0
APPID
  2
ASURF_PCURVE_APPNAME
 70
     0
  0
APPID
  2
AMG_3D2D_5_0
 70
     0
  0
APPID
  2
DESIGNERASSEMBLIES
 70
     0
  0
APPID
  2
ACADM_DIM_EDIT
 70
     0
  0
APPID
  2
AMDT_DM_ADJ
 70
     0
  0
ENDTAB
  0
TABLE
  2
DIMSTYLE
 70
     7
  0
DIMSTYLE
  2
STANDARD
 70
     0
  3

  4

  5

  6

  7

 40
1.0
 41
0.18
 42
0.0625
 43
0.38
 44
0.18
 45
0.0
 46
0.0
 47
0.0
 48
0.0
140
0.18
141
0.09
142
0.0
143
25.399999999999999
144
1.0
145
0.0
146
1.0
147
0.09
 71
     0
 72
     0
 73
     1
 74
     1
 75
     0
 76
     0
 77
     0
 78
     0
170
     0
171
     2
172
     0
173
     0
174
     0
175
     0
176
     0
177
     0
178
     0
  0
DIMSTYLE
  2
AM_ANSI
 70
     0
  3

  4
mm
  5

  6

  7

 40
1.0
 41
0.1
 42
0.05
 43
0.5
 44
0.1
 45
0.0
 46
0.0
 47
0.1
 48
0.1
140
0.12
141
0.0
142
0.0
143
25.399999999999999
144
1.0
145
0.0
146
0.71
147
0.06
 71
     0
 72
     0
 73
     1
 74
     1
 75
     0
 76
     0
 77
     0
 78
     7
170
     0
171
     2
172
     0
173
     0
174
     0
175
     0
176
   256
177
   256
178
     2
  0
DIMSTYLE
  2
AM_ANSI$3
 70
     0
  3

  4
mm
  5

  6

  7

 40
1.0
 41
0.1
 42
0.05
 43
0.5
 44
0.1
 45
0.0
 46
0.0
 47
0.1
 48
0.1
140
0.12
141
0.0
142
0.0
143
25.399999999999999
144
1.0
145
0.0
146
0.71
147
0.06
 71
     0
 72
     0
 73
     1
 74
     1
 75
     0
 76
     0
 77
     0
 78
     7
170
     0
171
     2
172
     0
173
     0
174
     0
175
     0
176
   256
177
   256
178
     2
  0
DIMSTYLE
  2
AM_ANSI$4
 70
     0
  3

  4
mm
  5

  6

  7

 40
1.0
 41
0.1
 42
0.05
 43
0.5
 44
0.1
 45
0.0
 46
0.0
 47
0.1
 48
0.1
140
0.12
141
0.0
142
0.0
143
25.399999999999999
144
1.0
145
0.0
146
0.71
147
0.06
 71
     0
 72
     0
 73
     1
 74
     1
 75
     0
 76
     0
 77
     0
 78
     7
170
     0
171
     2
172
     0
173
     0
174
     0
175
     0
176
   256
177
   256
178
     2
  0
DIMSTYLE
  2
AM_ANSI$7
 70
     0
  3

  4
mm
  5

  6

  7

 40
1.0
 41
0.1
 42
0.05
 43
0.5
 44
0.1
 45
0.0
 46
0.0
 47
0.1
 48
0.1
140
0.24
141
0.0
142
0.0
143
25.399999999999999
144
1.0
145
0.0
146
0.71
147
0.06
 71
     0
 72
     0
 73
     1
 74
     1
 75
     0
 76
     0
 77
     0
 78
     7
170
     0
171
     2
172
     0
173
     0
174
     0
175
     0
176
   256
177
   256
178
     2
  0
DIMSTYLE
  2
AM_ANSI$SF
 70
     0
  3

  4
mm
  5

  6

  7

 40
1.0
 41
0.1
 42
0.05
 43
0.5
 44
0.1
 45
0.0
 46
0.0
 47
0.1
 48
0.1
140
0.12
141
0.0
142
0.0
143
25.399999999999999
144
1.0
145
0.0
146
0.71
147
0.06
 71
     0
 72
     0
 73
     1
 74
     1
 75
     1
 76
     1
 77
     0
 78
     7
170
     0
171
     2
172
     0
173
     0
174
     0
175
     0
176
   256
177
   256
178
     2
  0
DIMSTYLE
  2
AM_ANSI$SH
 70
     0
  3

  4
mm
  5

  6
GENAXEH
  7

 40
1.0
 41
0.1
 42
0.05
 43
0.5
 44
0.1
 45
0.0
 46
0.0
 47
0.1
 48
0.1
140
0.12
141
0.0
142
0.0
143
25.399999999999999
144
1.0
145
0.0
146
0.71
147
0.06
 71
     0
 72
     0
 73
     1
 74
     1
 75
     1
 76
     1
 77
     0
 78
     7
170
     0
171
     2
172
     0
173
     1
174
     0
175
     0
176
   256
177
   256
178
     2
  0
ENDTAB
  0
ENDSEC
  0
SECTION
  2
BLOCKS
  0
BLOCK
  8
0
  2
$MODEL_SPACE
 70
     0
 10
0.0
 20
0.0
 30
0.0
  3
$MODEL_SPACE
  1

  0
ENDBLK
  5
A
  8
0
  0
BLOCK
 67
     1
  8
0
  2
$PAPER_SPACE
 70
     0
 10
0.0
 20
0.0
 30
0.0
  3
$PAPER_SPACE
  1

  0
ENDBLK
  5
F
 67
     1
  8
0
  0
BLOCK
  8
0
  2
*U0
 70
     1
 10
0.0
 20
0.0
 30
0.0
  3
*U0
  1

  0
ENDBLK
  5
111
  8
0
  0
BLOCK
  8
0
  2
GENAXEH
 70
     0
 10
0.0
 20
0.0
 30
0.0
  3
GENAXEH
  1

  0
LINE
  5
14F
  8
0
 10
-1.0
 20
0.0
 30
0.0
 11
1.0
 21
0.0
 31
0.0
  0
ENDBLK
  5
151
  8
0
  0
BLOCK
  8
0
  2
*U2
 70
     1
 10
0.0
 20
0.0
 30
0.0
  3
*U2
  1

  0
TEXT
  5
17C
  8
KEE16-7
 10
1.1625000000000001
 20
-1.998741881056155
 30
0.0
 40
0.09375
  1
2.625
  0
ENDBLK
  5
17E
  8
0
  0
ENDSEC
  0
SECTION
  2
ENTITIES
  0
LINE
  5
26
  8
AM_VIS
 10
1.2375
 20
-1.0023060711578551
 30
0.0
 11
0.8999999999999971
 21
-1.0023060711578551
 31
0.0
  0
LINE
  5
28
  8
AM_VIS
 10
-1.0349999999999999
 20
-1.042754138774574
 30
0.0
 11
-1.0349999999999999
 21
0.0000000000000009
 31
0.0
  0
LINE
  5
29
  8
AM_VIS
 10
-0.9000000000000004
 20
-1.0427541387745729
 30
0.0
 11
-0.9000000000000004
 21
0.0000000000000018
 31
0.0
  0
LINE
  5
2A
  8
AM_VIS
 10
-1.0349999999999999
 20
-1.7177541387745729
 30
0.0
 11
-0.8999999999999976
 21
-1.7177541387745729
 31
0.0
  0
POLYLINE
  8
AM_VIS
  5
17F
  66
     1
 10
0.000000
 20
0.000000
 30
0.000000
  70
     8
  0
VERTEX
  8
AM_VIS
  5
180
 10
-1.03624
 20
2.70000e-015
 30
0.000000
  70
    32
  0
VERTEX
  8
AM_VIS
  5
181
 10
-1.03624
 20
0.00114591
 30
0.000000
  70
    32
  0
VERTEX
  8
AM_VIS
  5
182
 10
-1.03624
 20
0.00228993
 30
0.000000
  70
    32
  0
VERTEX
  8
AM_VIS
  5
183
 10
-1.03624
 20
0.00343208
 30
0.000000
  70
    32
  0
VERTEX
  8
AM_VIS
  5
184
 10
-1.03623
 20
0.00457238
 30
0.000000
  70
    32
  0
VERTEX
  8
AM_VIS
  5
185
 10
-1.03622
 20
0.00571083
 30
0.000000
  70
    32
  0
VERTEX
  8
AM_VIS
  5
186
 10
-1.03621
 20
0.00684747
 30
0.000000
  70
    32
  0
VERTEX
  8
AM_VIS
  5
187
 10
-1.03620
 20
0.00798229
 30
0.000000
  70
    32
  0
VERTEX
  8
AM_VIS
  5
188
 10
-1.03619
 20
0.00911533
 30
0.000000
  70
    32
  0
VERTEX
  8
AM_VIS
  5
189
 10
-1.03618
 20
0.0102466
 30
0.000000
  70
    32
  0
VERTEX
  8
AM_VIS
  5
18A
 10
-1.03616
 20
0.0113761
 30
0.000000
  70
    32
  0
VERTEX
  8
AM_VIS
  5
18B
 10
-1.03615
 20
0.0125039
 30
0.000000
  70
    32
  0
VERTEX
  8
AM_VIS
  5
18C
 10
-1.03613
 20
0.0136299
 30
0.000000
  70
    32
  0
VERTEX
  8
AM_VIS
  5
18D
 10
-1.03611
 20
0.0147542
 30
0.000000
  70
    32
  0
VERTEX
  8
AM_VIS
  5
18E
 10
-1.03609
 20
0.0158769
 30
0.000000
  70
    32
  0
VERTEX
  8
AM_VIS
  5
18F
 10
-1.03606
 20
0.0169978
 30
0.000000
  70
    32
  0
VERTEX
  8
AM_VIS
  5
190
 10
-1.03604
 20
0.0181171
 30
0.000000
  70
    32
  0
VERTEX
  8
AM_VIS
  5
191
 10
-1.03601
 20
0.0192348
 30
0.000000
  70
    32
  0
VERTEX
  8
AM_VIS
  5
192
 10
-1.03599
 20
0.0203508
 30
0.000000
  70
    32
  0
VERTEX
  8
AM_VIS
  5
193
 10
-1.03596
 20
0.0214652
 30
0.000000
  70
    32
  0
VERTEX
  8
AM_VIS
  5
194
 10
-1.03593
 20
0.0225781
 30
0.000000
  70
    32
  0
VERTEX
  8
AM_VIS
  5
195
 10
-1.03590
 20
0.0236893
 30
0.000000
  70
    32
  0
VERTEX
  8
AM_VIS
  5
196
 10
-1.03586
 20
0.0247990
 30
0.000000
  70
    32
  0
VERTEX
  8
AM_VIS
  5
197
 10
-1.03583
 20
0.0259071
 30
0.000000
  70
    32
  0
VERTEX
  8
AM_VIS
  5
198
 10
-1.03579
 20
0.0270137
 30
0.000000
  70
    32
  0
VERTEX
  8
AM_VIS
  5
199
 10
-1.03576
 20
0.0281188
 30
0.000000
  70
    32
  0
VERTEX
  8
AM_VIS
  5
19A
 10
-1.03572
 20
0.0292224
 30
0.000000
  70
    32
  0
VERTEX
  8
AM_VIS
  5
19B
 10
-1.03568
 20
0.0303245
 30
0.000000
  70
    32
  0
VERTEX
  8
AM_VIS
  5
19C
 10
-1.03564
 20
0.0314252
 30
0.000000
  70
    32
  0
VERTEX
  8
AM_VIS
  5
19D
 10
-1.03559
 20
0.0325244
 30
0.000000
  70
    32
  0
VERTEX
  8
AM_VIS
  5
19E
 10
-1.03555
 20
0.0336221
 30
0.000000
  70
    32
  0
VERTEX
  8
AM_VIS
  5
19F
 10
-1.03550
 20
0.0347185
 30
0.000000
  70
    32
  0
VERTEX
  8
AM_VIS
  5
1A0
 10
-1.03546
 20
0.0358134
 30
0.000000
  70
    32
  0
VERTEX
  8
AM_VIS
  5
1A1
 10
-1.03541
 20
0.0369070
 30
0.000000
  70
    32
  0
VERTEX
  8
AM_VIS
  5
1A2
 10
-1.03536
 20
0.0379992
 30
0.000000
  70
    32
  0
VERTEX
  8
AM_VIS
  5
1A3
 10
-1.03531
 20
0.0390900
 30
0.000000
  70
    32
  0
VERTEX
  8
AM_VIS
  5
1A4
 10
-1.03525
 20
0.0401796
 30
0.000000
  70
    32
  0
VERTEX
  8
AM_VIS
  5
1A5
 10
-1.03520
 20
0.0412677
 30
0.000000
  70
    32
  0
VERTEX
  8
AM_VIS
  5
1A6
 10
-1.03514
 20
0.0423546
 30
0.000000
  70
    32
  0
VERTEX
  8
AM_VIS
  5
1A7
 10
-1.03509
 20
0.0434402
 30
0.000000
  70
    32
  0
VERTEX
  8
AM_VIS
  5
1A8
 10
-1.03503
 20
0.0445246
 30
0.000000
  70
    32
  0
VERTEX
  8
AM_VIS
  5
1A9
 10
-1.03497
 20
0.0456076
 30
0.000000
  70
    32
  0
VERTEX
  8
AM_VIS
  5
1AA
 10
-1.03491
 20
0.0466895
 30
0.000000
  70
    32
  0
VERTEX
  8
AM_VIS
  5
1AB
 10
-1.03485
 20
0.0477701
 30
0.000000
  70
    32
  0
VERTEX
  8
AM_VIS
  5
1AC
 10
-1.03479
 20
0.0488495
 30
0.000000
  70
    32
  0
VERTEX
  8
AM_VIS
  5
1AD
 10
-1.03472
 20
0.0499277
 30
0.000000
  70
    32
  0
VERTEX
  8
AM_VIS
  5
1AE
 10
-1.03466
 20
0.0510048
 30
0.000000
  70
    32
  0
VERTEX
  8
AM_VIS
  5
1AF
 10
-1.03459
 20
0.0520807
 30
0.000000
  70
    32
  0
VERTEX
  8
AM_VIS
  5
1B0
 10
-1.03452
 20
0.0531554
 30
0.000000
  70
    32
  0
VERTEX
  8
AM_VIS
  5
1B1
 10
-1.03445
 20
0.0542291
 30
0.000000
  70
    32
  0
VERTEX
  8
AM_VIS
  5
1B2
 10
-1.03438
 20
0.0553016
 30
0.000000
  70
    32
  0
VERTEX
  8
AM_VIS
  5
1B3
 10
-1.03431
 20
0.0563730
 30
0.000000
  70
    32
  0
VERTEX
  8
AM_VIS
  5
1B4
 10
-1.03424
 20
0.0574434
 30
0.000000
  70
    32
  0
VERTEX
  8
AM_VIS
  5
1B5
 10
-1.03417
 20
0.0585127
 30
0.000000
  70
    32
  0
VERTEX
  8
AM_VIS
  5
1B6
 10
-1.03409
 20
0.0595809
 30
0.000000
  70
    32
  0
VERTEX
  8
AM_VIS
  5
1B7
 10
-1.03402
 20
0.0606482
 30
0.000000
  70
    32
  0
VERTEX
  8
AM_VIS
  5
1B8
 10
-1.03394
 20
0.0617144
 30
0.000000
  70
    32
  0
VERTEX
  8
AM_VIS
  5
1B9
 10
-1.03386
 20
0.0627796
 30
0.000000
  70
    32
  0
VERTEX
  8
AM_VIS
  5
1BA
 10
-1.03378
 20
0.0638438
 30
0.000000
  70
    32
  0
VERTEX
  8
AM_VIS
  5
1BB
 10
-1.03370
 20
0.0649071
 30
0.000000
  70
    32
  0
VERTEX
  8
AM_VIS
  5
1BC
 10
-1.03362
 20
0.0659695
 30
0.000000
  70
    32
  0
VERTEX
  8
AM_VIS
  5
1BD
 10
-1.03353
 20
0.0670309
 30
0.000000
  70
    32
  0
VERTEX
  8
AM_VIS
  5
1BE
 10
-1.03345
 20
0.0680914
 30
0.000000
  70
    32
  0
VERTEX
  8
AM_VIS
  5
1BF
 10
-1.03337
 20
0.0691510
 30
0.000000
  70
    32
  0
VERTEX
  8
AM_VIS
  5
1C0
 10
-1.03328
 20
0.0702097
 30
0.000000
  70
    32
  0
VERTEX
  8
AM_VIS
  5
1C1
 10
-1.03319
 20
0.0712675
 30
0.000000
  70
    32
  0
VERTEX
  8
AM_VIS
  5
1C2
 10
-1.03310
 20
0.0723245
 30
0.000000
  70
    32
  0
VERTEX
  8
AM_VIS
  5
1C3
 10
-1.03301
 20
0.0733807
 30
0.000000
  70
    32
  0
VERTEX
  8
AM_VIS
  5
1C4
 10
-1.03292
 20
0.0744361
 30
0.000000
  70
    32
  0
VERTEX
  8
AM_VIS
  5
1C5
 10
-1.03283
 20
0.0754906
 30
0.000000
  70
    32
  0
VERTEX
  8
AM_VIS
  5
1C6
 10
-1.03274
 20
0.0765444
 30
0.000000
  70
    32
  0
VERTEX
  8
AM_VIS
  5
1C7
 10
-1.03265
 20
0.0775974
 30
0.000000
  70
    32
  0
VERTEX
  8
AM_VIS
  5
1C8
 10
-1.03255
 20
0.0786497
 30
0.000000
  70
    32
  0
VERTEX
  8
AM_VIS
  5
1C9
 10
-1.03246
 20
0.0797012
 30
0.000000
  70
    32
  0
VERTEX
  8
AM_VIS
  5
1CA
 10
-1.03236
 20
0.0807520
 30
0.000000
  70
    32
  0
VERTEX
  8
AM_VIS
  5
1CB
 10
-1.03226
 20
0.0818021
 30
0.000000
  70
    32
  0
VERTEX
  8
AM_VIS
  5
1CC
 10
-1.03216
 20
0.0828516
 30
0.000000
  70
    32
  0
VERTEX
  8
AM_VIS
  5
1CD
 10
-1.03206
 20
0.0839003
 30
0.000000
  70
    32
  0
VERTEX
  8
AM_VIS
  5
1CE
 10
-1.03196
 20
0.0849484
 30
0.000000
  70
    32
  0
VERTEX
  8
AM_VIS
  5
1CF
 10
-1.03186
 20
0.0859959
 30
0.000000
  70
    32
  0
VERTEX
  8
AM_VIS
  5
1D0
 10
-1.03176
 20
0.0870427
 30
0.000000
  70
    32
  0
VERTEX
  8
AM_VIS
  5
1D1
 10
-1.03166
 20
0.0880889
 30
0.000000
  70
    32
  0
VERTEX
  8
AM_VIS
  5
1D2
 10
-1.03155
 20
0.0891346
 30
0.000000
  70
    32
  0
VERTEX
  8
AM_VIS
  5
1D3
 10
-1.03145
 20
0.0901797
 30
0.000000
  70
    32
  0
VERTEX
  8
AM_VIS
  5
1D4
 10
-1.03134
 20
0.0912242
 30
0.000000
  70
    32
  0
VERTEX
  8
AM_VIS
  5
1D5
 10
-1.03124
 20
0.0922682
 30
0.000000
  70
    32
  0
VERTEX
  8
AM_VIS
  5
1D6
 10
-1.03113
 20
0.0933116
 30
0.000000
  70
    32
  0
VERTEX
  8
AM_VIS
  5
1D7
 10
-1.03102
 20
0.0943546
 30
0.000000
  70
    32
  0
VERTEX
  8
AM_VIS
  5
1D8
 10
-1.03091
 20
0.0953971
 30
0.000000
  70
    32
  0
VERTEX
  8
AM_VIS
  5
1D9
 10
-1.03080
 20
0.0964391
 30
0.000000
  70
    32
  0
VERTEX
  8
AM_VIS
  5
1DA
 10
-1.03069
 20
0.0974806
 30
0.000000
  70
    32
  0
VERTEX
  8
AM_VIS
  5
1DB
 10
-1.03058
 20
0.0985217
 30
0.000000
  70
    32
  0
VERTEX
  8
AM_VIS
  5
1DC
 10
-1.03046
 20
0.0995623
 30
0.000000
  70
    32
  0
VERTEX
  8
AM_VIS
  5
1DD
 10
-1.03035
 20
0.100603
 30
0.000000
  70
    32
  0
VERTEX
  8
AM_VIS
  5
1DE
 10
-1.03023
 20
0.101642
 30
0.000000
  70
    32
  0
VERTEX
  8
AM_VIS
  5
1DF
 10
-1.03012
 20
0.102682
 30
0.000000
  70
    32
  0
VERTEX
  8
AM_VIS
  5
1E0
 10
-1.03000
 20
0.103721
 30
0.000000
  70
    32
  0
VERTEX
  8
AM_VIS
  5
1E1
 10
-1.02989
 20
0.104760
 30
0.000000
  70
    32
  0
VERTEX
  8
AM_VIS
  5
1E2
 10
-1.02977
 20
0.105798
 30
0.000000
  70
    32
  0
VERTEX
  8
AM_VIS
  5
1E3
 10
-1.02965
 20
0.106836
 30
0.000000
  70
    32
  0
VERTEX
  8
AM_VIS
  5
1E4
 10
-1.02953
 20
0.107874
 30
0.000000
  70
    32
  0
VERTEX
  8
AM_VIS
  5
1E5
 10
-1.02941
 20
0.108912
 30
0.000000
  70
    32
  0
VERTEX
  8
AM_VIS
  5
1E6
 10
-1.02929
 20
0.109949
 30
0.000000
  70
    32
  0
VERTEX
  8
AM_VIS
  5
1E7
 10
-1.02917
 20
0.110986
 30
0.000000
  70
    32
  0
VERTEX
  8
AM_VIS
  5
1E8
 10
-1.02904
 20
0.112023
 30
0.000000
  70
    32
  0
VERTEX
  8
AM_VIS
  5
1E9
 10
-1.02892
 20
0.113060
 30
0.000000
  70
    32
  0
VERTEX
  8
AM_VIS
  5
1EA
 10
-1.02880
 20
0.114096
 30
0.000000
  70
    32
  0
VERTEX
  8
AM_VIS
  5
1EB
 10
-1.02867
 20
0.115132
 30
0.000000
  70
    32
  0
VERTEX
  8
AM_VIS
  5
1EC
 10
-1.02855
 20
0.116168
 30
0.000000
  70
    32
  0
VERTEX
  8
AM_VIS
  5
1ED
 10
-1.02842
 20
0.117204
 30
0.000000
  70
    32
  0
VERTEX
  8
AM_VIS
  5
1EE
 10
-1.02830
 20
0.118240
 30
0.000000
  70
    32
  0
VERTEX
  8
AM_VIS
  5
1EF
 10
-1.02817
 20
0.119276
 30
0.000000
  70
    32
  0
VERTEX
  8
AM_VIS
  5
1F0
 10
-1.02804
 20
0.120311
 30
0.000000
  70
    32
  0
VERTEX
  8
AM_VIS
  5
1F1
 10
-1.02791
 20
0.121347
 30
0.000000
  70
    32
  0
VERTEX
  8
AM_VIS
  5
1F2
 10
-1.02778
 20
0.122382
 30
0.000000
  70
    32
  0
VERTEX
  8
AM_VIS
  5
1F3
 10
-1.02765
 20
0.123418
 30
0.000000
  70
    32
  0
VERTEX
  8
AM_VIS
  5
1F4
 10
-1.02752
 20
0.124453
 30
0.000000
  70
    32
  0
VERTEX
  8
AM_VIS
  5
1F5
 10
-1.02739
 20
0.125488
 30
0.000000
  70
    32
  0
VERTEX
  8
AM_VIS
  5
1F6
 10
-1.02726
 20
0.126523
 30
0.000000
  70
    32
  0
VERTEX
  8
AM_VIS
  5
1F7
 10
-1.02713
 20
0.127559
 30
0.000000
  70
    32
  0
VERTEX
  8
AM_VIS
  5
1F8
 10
-1.02699
 20
0.128594
 30
0.000000
  70
    32
  0
VERTEX
  8
AM_VIS
  5
1F9
 10
-1.02686
 20
0.129630
 30
0.000000
  70
    32
  0
VERTEX
  8
AM_VIS
  5
1FA
 10
-1.02673
 20
0.130665
 30
0.000000
  70
    32
  0
VERTEX
  8
AM_VIS
  5
1FB
 10
-1.02659
 20
0.131701
 30
0.000000
  70
    32
  0
VERTEX
  8
AM_VIS
  5
1FC
 10
-1.02646
 20
0.132736
 30
0.000000
  70
    32
  0
VERTEX
  8
AM_VIS
  5
1FD
 10
-1.02632
 20
0.133772
 30
0.000000
  70
    32
  0
VERTEX
  8
AM_VIS
  5
1FE
 10
-1.02618
 20
0.134808
 30
0.000000
  70
    32
  0
VERTEX
  8
AM_VIS
  5
1FF
 10
-1.02605
 20
0.135844
 30
0.000000
  70
    32
  0
SEQEND
  8
AM_VIS
  5
200
  0
POLYLINE
  8
AM_VIS
  5
201
  66
     1
 10
0.000000
 20
0.000000
 30
0.000000
  70
     8
  0
VERTEX
  8
AM_VIS
  5
202
 10
-1.03500
 20
-0.0450261
 30
0.000000
  70
    32
  0
VERTEX
  8
AM_VIS
  5
203
 10
-1.03502
 20
-0.0446809
 30
0.000000
  70
    32
  0
VERTEX
  8
AM_VIS
  5
204
 10
-1.03504
 20
-0.0443356
 30
0.000000
  70
    32
  0
VERTEX
  8
AM_VIS
  5
205
 10
-1.03506
 20
-0.0439902
 30
0.000000
  70
    32
  0
VERTEX
  8
AM_VIS
  5
206
 10
-1.03507
 20
-0.0436447
 30
0.000000
  70
    32
  0
VERTEX
  8
AM_VIS
  5
207
 10
-1.03509
 20
-0.0432990
 30
0.000000
  70
    32
  0
VERTEX
  8
AM_VIS
  5
208
 10
-1.03511
 20
-0.0429532
 30
0.000000
  70
    32
  0
VERTEX
  8
AM_VIS
  5
209
 10
-1.03513
 20
-0.0426073
 30
0.000000
  70
    32
  0
VERTEX
  8
AM_VIS
  5
20A
 10
-1.03515
 20
-0.0422613
 30
0.000000
  70
    32
  0
VERTEX
  8
AM_VIS
  5
20B
 10
-1.03516
 20
-0.0419151
 30
0.000000
  70
    32
  0
VERTEX
  8
AM_VIS
  5
20C
 10
-1.03518
 20
-0.0415688
 30
0.000000
  70
    32
  0
VERTEX
  8
AM_VIS
  5
20D
 10
-1.03520
 20
-0.0412223
 30
0.000000
  70
    32
  0
VERTEX
  8
AM_VIS
  5
20E
 10
-1.03522
 20
-0.0408757
 30
0.000000
  70
    32
  0
VERTEX
  8
AM_VIS
  5
20F
 10
-1.03523
 20
-0.0405290
 30
0.000000
  70
    32
  0
VERTEX
  8
AM_VIS
  5
210
 10
-1.03525
 20
-0.0401822
 30
0.000000
  70
    32
  0
VERTEX
  8
AM_VIS
  5
211
 10
-1.03527
 20
-0.0398352
 30
0.000000
  70
    32
  0
VERTEX
  8
AM_VIS
  5
212
 10
-1.03528
 20
-0.0394881
 30
0.000000
  70
    32
  0
VERTEX
  8
AM_VIS
  5
213
 10
-1.03530
 20
-0.0391408
 30
0.000000
  70
    32
  0
VERTEX
  8
AM_VIS
  5
214
 10
-1.03532
 20
-0.0387935
 30
0.000000
  70
    32
  0
VERTEX
  8
AM_VIS
  5
215
 10
-1.03533
 20
-0.0384459
 30
0.000000
  70
    32
  0
VERTEX
  8
AM_VIS
  5
216
 10
-1.03535
 20
-0.0380983
 30
0.000000
  70
    32
  0
VERTEX
  8
AM_VIS
  5
217
 10
-1.03537
 20
-0.0377505
 30
0.000000
  70
    32
  0
VERTEX
  8
AM_VIS
  5
218
 10
-1.03538
 20
-0.0374026
 30
0.000000
  70
    32
  0
VERTEX
  8
AM_VIS
  5
219
 10
-1.03540
 20
-0.0370545
 30
0.000000
  70
    32
  0
VERTEX
  8
AM_VIS
  5
21A
 10
-1.03541
 20
-0.0367063
 30
0.000000
  70
    32
  0
VERTEX
  8
AM_VIS
  5
21B
 10
-1.03543
 20
-0.0363579
 30
0.000000
  70
    32
  0
VERTEX
  8
AM_VIS
  5
21C
 10
-1.03544
 20
-0.0360095
 30
0.000000
  70
    32
  0
VERTEX
  8
AM_VIS
  5
21D
 10
-1.03546
 20
-0.0356608
 30
0.000000
  70
    32
  0
VERTEX
  8
AM_VIS
  5
21E
 10
-1.03547
 20
-0.0353121
 30
0.000000
  70
    32
  0
VERTEX
  8
AM_VIS
  5
21F
 10
-1.03549
 20
-0.0349632
 30
0.000000
  70
    32
  0
VERTEX
  8
AM_VIS
  5
220
 10
-1.03550
 20
-0.0346141
 30
0.000000
  70
    32
  0
VERTEX
  8
AM_VIS
  5
221
 10
-1.03552
 20
-0.0342649
 30
0.000000
  70
    32
  0
VERTEX
  8
AM_VIS
  5
222
 10
-1.03553
 20
-0.0339156
 30
0.000000
  70
    32
  0
VERTEX
  8
AM_VIS
  5
223
 10
-1.03555
 20
-0.0335661
 30
0.000000
  70
    32
  0
VERTEX
  8
AM_VIS
  5
224
 10
-1.03556
 20
-0.0332165
 30
0.000000
  70
    32
  0
VERTEX
  8
AM_VIS
  5
225
 10
-1.03558
 20
-0.0328667
 30
0.000000
  70
    32
  0
VERTEX
  8
AM_VIS
  5
226
 10
-1.03559
 20
-0.0325168
 30
0.000000
  70
    32
  0
VERTEX
  8
AM_VIS
  5
227
 10
-1.03560
 20
-0.0321668
 30
0.000000
  70
    32
  0
VERTEX
  8
AM_VIS
  5
228
 10
-1.03562
 20
-0.0318165
 30
0.000000
  70
    32
  0
VERTEX
  8
AM_VIS
  5
229
 10
-1.03563
 20
-0.0314662
 30
0.000000
  70
    32
  0
VERTEX
  8
AM_VIS
  5
22A
 10
-1.03565
 20
-0.0311157
 30
0.000000
  70
    32
  0
VERTEX
  8
AM_VIS
  5
22B
 10
-1.03566
 20
-0.0307651
 30
0.000000
  70
    32
  0
VERTEX
  8
AM_VIS
  5
22C
 10
-1.03567
 20
-0.0304143
 30
0.000000
  70
    32
  0
VERTEX
  8
AM_VIS
  5
22D
 10
-1.03569
 20
-0.0300633
 30
0.000000
  70
    32
  0
VERTEX
  8
AM_VIS
  5
22E
 10
-1.03570
 20
-0.0297122
 30
0.000000
  70
    32
  0
VERTEX
  8
AM_VIS
  5
22F
 10
-1.03571
 20
-0.0293610
 30
0.000000
  70
    32
  0
VERTEX
  8
AM_VIS
  5
230
 10
-1.03572
 20
-0.0290096
 30
0.000000
  70
    32
  0
VERTEX
  8
AM_VIS
  5
231
 10
-1.03574
 20
-0.0286581
 30
0.000000
  70
    32
  0
VERTEX
  8
AM_VIS
  5
232
 10
-1.03575
 20
-0.0283064
 30
0.000000
  70
    32
  0
VERTEX
  8
AM_VIS
  5
233
 10
-1.03576
 20
-0.0279545
 30
0.000000
  70
    32
  0
VERTEX
  8
AM_VIS
  5
234
 10
-1.03577
 20
-0.0276025
 30
0.000000
  70
    32
  0
VERTEX
  8
AM_VIS
  5
235
 10
-1.03578
 20
-0.0272504
 30
0.000000
  70
    32
  0
VERTEX
  8
AM_VIS
  5
236
 10
-1.03580
 20
-0.0268981
 30
0.000000
  70
    32
  0
VERTEX
  8
AM_VIS
  5
237
 10
-1.03581
 20
-0.0265456
 30
0.000000
  70
    32
  0
VERTEX
  8
AM_VIS
  5
238
 10
-1.03582
 20
-0.0261930
 30
0.000000
  70
    32
  0
VERTEX
  8
AM_VIS
  5
239
 10
-1.03583
 20
-0.0258403
 30
0.000000
  70
    32
  0
VERTEX
  8
AM_VIS
  5
23A
 10
-1.03584
 20
-0.0254873
 30
0.000000
  70
    32
  0
VERTEX
  8
AM_VIS
  5
23B
 10
-1.03585
 20
-0.0251343
 30
0.000000
  70
    32
  0
VERTEX
  8
AM_VIS
  5
23C
 10
-1.03586
 20
-0.0247810
 30
0.000000
  70
    32
  0
VERTEX
  8
AM_VIS
  5
23D
 10
-1.03587
 20
-0.0244276
 30
0.000000
  70
    32
  0
VERTEX
  8
AM_VIS
  5
23E
 10
-1.03588
 20
-0.0240741
 30
0.000000
  70
    32
  0
VERTEX
  8
AM_VIS
  5
23F
 10
-1.03590
 20
-0.0237204
 30
0.000000
  70
    32
  0
VERTEX
  8
AM_VIS
  5
240
 10
-1.03591
 20
-0.0233665
 30
0.000000
  70
    32
  0
VERTEX
  8
AM_VIS
  5
241
 10
-1.03592
 20
-0.0230125
 30
0.000000
  70
    32
  0
VERTEX
  8
AM_VIS
  5
242
 10
-1.03593
 20
-0.0226583
 30
0.000000
  70
    32
  0
VERTEX
  8
AM_VIS
  5
243
 10
-1.03594
 20
-0.0223040
 30
0.000000
  70
    32
  0
VERTEX
  8
AM_VIS
  5
244
 10
-1.03595
 20
-0.0219495
 30
0.000000
  70
    32
  0
VERTEX
  8
AM_VIS
  5
245
 10
-1.03595
 20
-0.0215948
 30
0.000000
  70
    32
  0
VERTEX
  8
AM_VIS
  5
246
 10
-1.03596
 20
-0.0212400
 30
0.000000
  70
    32
  0
VERTEX
  8
AM_VIS
  5
247
 10
-1.03597
 20
-0.0208850
 30
0.000000
  70
    32
  0
VERTEX
  8
AM_VIS
  5
248
 10
-1.03598
 20
-0.0205298
 30
0.000000
  70
    32
  0
VERTEX
  8
AM_VIS
  5
249
 10
-1.03599
 20
-0.0201745
 30
0.000000
  70
    32
  0
VERTEX
  8
AM_VIS
  5
24A
 10
-1.03600
 20
-0.0198190
 30
0.000000
  70
    32
  0
VERTEX
  8
AM_VIS
  5
24B
 10
-1.03601
 20
-0.0194634
 30
0.000000
  70
    32
  0
VERTEX
  8
AM_VIS
  5
24C
 10
-1.03602
 20
-0.0191076
 30
0.000000
  70
    32
  0
VERTEX
  8
AM_VIS
  5
24D
 10
-1.03603
 20
-0.0187516
 30
0.000000
  70
    32
  0
VERTEX
  8
AM_VIS
  5
24E
 10
-1.03603
 20
-0.0183955
 30
0.000000
  70
    32
  0
VERTEX
  8
AM_VIS
  5
24F
 10
-1.03604
 20
-0.0180392
 30
0.000000
  70
    32
  0
VERTEX
  8
AM_VIS
  5
250
 10
-1.03605
 20
-0.0176827
 30
0.000000
  70
    32
  0
VERTEX
  8
AM_VIS
  5
251
 10
-1.03606
 20
-0.0173261
 30
0.000000
  70
    32
  0
VERTEX
  8
AM_VIS
  5
252
 10
-1.03607
 20
-0.0169693
 30
0.000000
  70
    32
  0
VERTEX
  8
AM_VIS
  5
253
 10
-1.03607
 20
-0.0166123
 30
0.000000
  70
    32
  0
VERTEX
  8
AM_VIS
  5
254
 10
-1.03608
 20
-0.0162551
 30
0.000000
  70
    32
  0
VERTEX
  8
AM_VIS
  5
255
 10
-1.03609
 20
-0.0158978
 30
0.000000
  70
    32
  0
VERTEX
  8
AM_VIS
  5
256
 10
-1.03609
 20
-0.0155403
 30
0.000000
  70
    32
  0
VERTEX
  8
AM_VIS
  5
257
 10
-1.03610
 20
-0.0151827
 30
0.000000
  70
    32
  0
VERTEX
  8
AM_VIS
  5
258
 10
-1.03611
 20
-0.0148248
 30
0.000000
  70
    32
  0
VERTEX
  8
AM_VIS
  5
259
 10
-1.03611
 20
-0.0144668
 30
0.000000
  70
    32
  0
VERTEX
  8
AM_VIS
  5
25A
 10
-1.03612
 20
-0.0141087
 30
0.000000
  70
    32
  0
VERTEX
  8
AM_VIS
  5
25B
 10
-1.03613
 20
-0.0137503
 30
0.000000
  70
    32
  0
VERTEX
  8
AM_VIS
  5
25C
 10
-1.03613
 20
-0.0133918
 30
0.000000
  70
    32
  0
VERTEX
  8
AM_VIS
  5
25D
 10
-1.03614
 20
-0.0130331
 30
0.000000
  70
    32
  0
VERTEX
  8
AM_VIS
  5
25E
 10
-1.03614
 20
-0.0126743
 30
0.000000
  70
    32
  0
VERTEX
  8
AM_VIS
  5
25F
 10
-1.03615
 20
-0.0123152
 30
0.000000
  70
    32
  0
VERTEX
  8
AM_VIS
  5
260
 10
-1.03615
 20
-0.0119560
 30
0.000000
  70
    32
  0
VERTEX
  8
AM_VIS
  5
261
 10
-1.03616
 20
-0.0115966
 30
0.000000
  70
    32
  0
VERTEX
  8
AM_VIS
  5
262
 10
-1.03617
 20
-0.0112370
 30
0.000000
  70
    32
  0
VERTEX
  8
AM_VIS
  5
263
 10
-1.03617
 20
-0.0108773
 30
0.000000
  70
    32
  0
VERTEX
  8
AM_VIS
  5
264
 10
-1.03617
 20
-0.0105174
 30
0.000000
  70
    32
  0
VERTEX
  8
AM_VIS
  5
265
 10
-1.03618
 20
-0.0101573
 30
0.000000
  70
    32
  0
VERTEX
  8
AM_VIS
  5
266
 10
-1.03618
 20
-0.00979698
 30
0.000000
  70
    32
  0
VERTEX
  8
AM_VIS
  5
267
 10
-1.03619
 20
-0.00943652
 30
0.000000
  70
    32
  0
VERTEX
  8
AM_VIS
  5
268
 10
-1.03619
 20
-0.00907588
 30
0.000000
  70
    32
  0
VERTEX
  8
AM_VIS
  5
269
 10
-1.03620
 20
-0.00871506
 30
0.000000
  70
    32
  0
VERTEX
  8
AM_VIS
  5
26A
 10
-1.03620
 20
-0.00835406
 30
0.000000
  70
    32
  0
VERTEX
  8
AM_VIS
  5
26B
 10
-1.03620
 20
-0.00799288
 30
0.000000
  70
    32
  0
VERTEX
  8
AM_VIS
  5
26C
 10
-1.03621
 20
-0.00763152
 30
0.000000
  70
    32
  0
VERTEX
  8
AM_VIS
  5
26D
 10
-1.03621
 20
-0.00726998
 30
0.000000
  70
    32
  0
VERTEX
  8
AM_VIS
  5
26E
 10
-1.03621
 20
-0.00690825
 30
0.000000
  70
    32
  0
VERTEX
  8
AM_VIS
  5
26F
 10
-1.03622
 20
-0.00654634
 30
0.000000
  70
    32
  0
VERTEX
  8
AM_VIS
  5
270
 10
-1.03622
 20
-0.00618424
 30
0.000000
  70
    32
  0
VERTEX
  8
AM_VIS
  5
271
 10
-1.03622
 20
-0.00582196
 30
0.000000
  70
    32
  0
VERTEX
  8
AM_VIS
  5
272
 10
-1.03623
 20
-0.00545950
 30
0.000000
  70
    32
  0
VERTEX
  8
AM_VIS
  5
273
 10
-1.03623
 20
-0.00509685
 30
0.000000
  70
    32
  0
VERTEX
  8
AM_VIS
  5
274
 10
-1.03623
 20
-0.00473402
 30
0.000000
  70
    32
  0
VERTEX
  8
AM_VIS
  5
275
 10
-1.03623
 20
-0.00437099
 30
0.000000
  70
    32
  0
VERTEX
  8
AM_VIS
  5
276
 10
-1.03623
 20
-0.00400779
 30
0.000000
  70
    32
  0
VERTEX
  8
AM_VIS
  5
277
 10
-1.03624
 20
-0.00364439
 30
0.000000
  70
    32
  0
VERTEX
  8
AM_VIS
  5
278
 10
-1.03624
 20
-0.00328081
 30
0.000000
  70
    32
  0
VERTEX
  8
AM_VIS
  5
279
 10
-1.03624
 20
-0.00291703
 30
0.000000
  70
    32
  0
VERTEX
  8
AM_VIS
  5
27A
 10
-1.03624
 20
-0.00255307
 30
0.000000
  70
    32
  0
VERTEX
  8
AM_VIS
  5
27B
 10
-1.03624
 20
-0.00218892
 30
0.000000
  70
    32
  0
VERTEX
  8
AM_VIS
  5
27C
 10
-1.03624
 20
-0.00182458
 30
0.000000
  70
    32
  0
VERTEX
  8
AM_VIS
  5
27D
 10
-1.03624
 20
-0.00146005
 30
0.000000
  70
    32
  0
VERTEX
  8
AM_VIS
  5
27E
 10
-1.03624
 20
-0.00109532
 30
0.000000
  70
    32
  0
VERTEX
  8
AM_VIS
  5
27F
 10
-1.03624
 20
-0.000730407
 30
0.000000
  70
    32
  0
VERTEX
  8
AM_VIS
  5
280
 10
-1.03624
 20
-0.000365300
 30
0.000000
  70
    32
  0
VERTEX
  8
AM_VIS
  5
281
 10
-1.03624
 20
-9.82850e-012
 30
0.000000
  70
    32
  0
SEQEND
  8
AM_VIS
  5
282
  0
LINE
  5
2D
  8
AM_VIS
 10
-1.2037500000002681
 20
0.0000000000008766
 30
0.0
 11
-1.2037500000002681
 21
-0.2304536757847071
 31
0.0
  0
ARC
  5
2E
  8
AM_VIS
 10
-1.1129969044768271
 20
-0.5906249999999913
 30
0.0
 40
0.2249999999999943
 50
69.717271837711635
 51
90.000000000000057
  0
ARC
  5
2F
  8
AM_VIS
 10
-1.1129969044768271
 20
0.5906249999999993
 30
0.0
 40
0.2249999999999996
 50
270.0
 51
332.04681311661881
  0
LINE
  5
30
  8
AM_VIS
 10
-1.2037500000002681
 20
0.2304536757847106
 30
0.0
 11
-1.2037500000002681
 21
-0.0000000000008731
 31
0.0
  0
LINE
  5
31
  8
AM_VIS
 10
2.6999999994860042
 20
0.1358437557679224
 30
0.0
 11
2.6999999994860042
 21
-0.0000000000000009
 31
0.0
  0
LINE
  5
32
  8
AM_VIS
 10
2.6999999994860042
 20
-0.0000000000000009
 30
0.0
 11
2.6999999994860042
 21
-0.1358437557679224
 31
0.0
  0
ARC
  5
33
  8
AM_VIS
 10
2.13678859781793
 20
-0.0104883905451914
 30
0.0
 40
0.3692967596140915
 50
1.6282101057799281
 51
40.705684390482119
  0
ARC
  5
34
  8
AM_VIS
 10
2.13678859781793
 20
0.0104883905451914
 30
0.0
 40
0.3692967596140915
 50
319.29431560951792
 51
358.37178989422011
  0
ARC
  5
35
  8
AM_VIS
 10
2.1292114021820701
 20
-0.0104883905451905
 30
0.0
 40
0.3692967596140895
 50
139.29431560951781
 51
178.3717898942202
  0
ARC
  5
36
  8
AM_VIS
 10
2.1292114021820701
 20
0.0104883905451905
 30
0.0
 40
0.3692967596140894
 50
181.6282101057798
 51
220.70568439048219
  0
LINE
  5
37
  8
AM_VIS
 10
0.9
 20
-1.2419999999999991
 30
0.0
 11
0.9
 21
-1.002306071157856
 31
0.0
  0
LINE
  5
38
  8
AM_VIS
 10
1.2375
 20
-1.2419999999999991
 30
0.0
 11
1.2375
 21
-1.002306071157856
 31
0.0
  0
LINE
  5
39
  8
AM_HID
 10
0.9
 20
-1.0732499999999989
 30
0.0
 11
1.2375
 21
-1.0732499999999989
 31
0.0
  0
LINE
  5
3C
  8
AM_HID
 10
0.9
 20
-1.4107499999999991
 30
0.0
 11
1.2375
 21
-1.4107499999999991
 31
0.0
  0
LINE
  5
3D
  8
AM_HID
 10
-1.0349999999999999
 20
-1.0732499999999989
 30
0.0
 11
-0.8999999999999953
 21
-1.0732499999999989
 31
0.0
  0
LINE
  5
3E
  8
AM_HID
 10
-1.0349999999999999
 20
-1.4107499999999991
 30
0.0
 11
-0.8999999999999953
 21
-1.4107499999999991
 31
0.0
  0
LINE
  5
3F
  8
AM_VIS
 10
0.0
 20
1.034999999999999
 30
0.0
 11
2.7000000000000002
 21
1.0349999999999999
 31
0.0
  0
LINE
  5
40
  8
AM_VIS
 10
1.2375
 20
-1.0349999999999999
 30
0.0
 11
2.7000000000000002
 21
-1.034999999999999
 31
0.0
  0
LINE
  5
41
  8
AM_HID
 10
-1.0349999999999979
 20
-0.2812499999999964
 30
0.0
 11
-1.2037500000000001
 21
-0.2812499999999964
 31
0.0
  0
LINE
  5
42
  8
AM_HID
 10
-0.9960539330277239
 20
0.2812500000000035
 30
0.0
 11
-1.203749999999999
 21
0.2812500000000035
 31
0.0
  0
LINE
  5
43
  8
AM_VIS
 10
-1.1129969044768271
 20
-0.365624999999997
 30
0.0
 11
-1.2037500000000001
 21
-0.365624999999997
 31
0.0
  0
LINE
  5
44
  8
AM_VIS
 10
-1.203749999999999
 20
0.3656249999999996
 30
0.0
 11
-1.112996904476826
 21
0.3656249999999996
 31
0.0
  0
LINE
  5
45
  8
AM_HID
 10
0.0000000000000009
 20
0.8999999999999994
 30
0.0
 11
2.7000000000000002
 21
0.9000000000000004
 31
0.0
  0
LINE
  5
46
  8
AM_HID
 10
0.8999999999999971
 20
-0.9000000000000004
 30
0.0
 11
2.7000000000000002
 21
-0.9
 31
0.0
  0
LINE
  5
47
  8
AM_VIS
 10
0.9000000000000007
 20
-1.5000843655088461
 30
0.0
 11
1.2375000000000009
 21
-1.5000843655088461
 31
0.0
  0
LINE
  5
48
  8
AM_VIS
 10
2.7000000000000002
 20
-1.0349999999999999
 30
0.0
 11
2.7000000000000002
 21
-0.1358437557679224
 31
0.0
  0
LINE
  5
49
  8
AM_VIS
 10
2.7000000000000002
 20
0.1358437557679224
 30
0.0
 11
2.7000000000000002
 21
1.0349999999999999
 31
0.0
  0
LINE
  5
4A
  8
AM_VIS
 10
0.8999999999999971
 20
-1.002306071157856
 30
0.0
 11
0.8999999999999971
 21
-0.0000000000000018
 31
0.0
  0
ARC
  5
4B
  8
AM_VIS
 10
0.0
 20
0.0
 30
0.0
 40
0.9
 50
359.99999999999989
 51
179.99999999999989
  0
ARC
  5
4C
  8
AM_VIS
 10
0.0
 20
0.0
 30
0.0
 40
1.034999999999999
 50
359.99999999999989
 51
179.99999999999989
  0
LINE
  5
4D
  8
AM_VIS
 10
-1.0349999999999999
 20
-1.042754138774574
 30
0.0
 11
-1.0349999999999999
 21
-1.7177541387745741
 31
0.0
  0
LINE
  5
4E
  8
AM_VIS
 10
-0.9
 20
-1.0427541387745729
 30
0.0
 11
-0.9
 21
-1.7177541387745729
 31
0.0
  0
LINE
  5
4F
  8
AM_VIS
 10
-1.2037500000000001
 20
-0.2304536757847071
 30
0.0
 11
-1.2037500000000001
 21
-0.3656249999999961
 31
0.0
  0
LINE
  5
50
  8
AM_VIS
 10
-1.203749999999999
 20
0.3656249999999996
 30
0.0
 11
-1.203749999999999
 21
0.2304536757847098
 31
0.0
  0
ARC
  5
51
  8
AM_VIS
 10
2.1330000000000009
 20
-0.0000000000000018
 30
0.0
 40
0.365625
 50
39.072307559180501
 51
140.92769244081961
  0
CIRCLE
  5
52
  8
AM_VIS
 10
2.1330000000000009
 20
0.0000000000000018
 30
0.0
 40
0.28125
  0
ARC
  5
53
  8
AM_VIS
 10
2.133
 20
0.0000000000000018
 30
0.0
 40
0.365625
 50
219.0723075591805
 51
320.92769244081961
  0
LINE
  5
54
  8
AM_VIS
 10
0.9
 20
-1.2419999999999991
 30
0.0
 11
0.9
 21
-1.5000843655088461
 31
0.0
  0
LINE
  5
55
  8
AM_VIS
 10
1.2375
 20
-1.2419999999999991
 30
0.0
 11
1.2375
 21
-1.5000843655088461
 31
0.0
  0
LINE
  5
158
  8
KEE16-7
 10
0.0
 20
-0.0625
 30
0.0
 11
0.0
 21
-2.1318668810561552
 31
0.0
  0
LINE
  5
159
  8
KEE16-7
 10
2.7000000000000002
 20
-1.0974999999999999
 30
0.0
 11
2.7000000000000002
 21
-2.1318668810561539
 31
0.0
  0
LINE
  5
15A
  8
KEE16-7
 10
0.125
 20
-1.951866881056155
 30
0.0
 11
1.0490625
 21
-1.951866881056155
 31
0.0
  0
LINE
  5
15B
  8
KEE16-7
 10
2.5750000000000002
 20
-1.951866881056155
 30
0.0
 11
1.6509374999999991
 21
-1.951866881056155
 31
0.0
  0
SOLID
  5
15C
  8
KEE16-7
 10
0.125
 20
-1.9310335477228211
 30
0.0
 11
0.125
 21
-1.9727002143894881
 31
0.0
 12
0.0
 22
-1.951866881056155
 32
0.0
 13
0.0
 23
-1.951866881056155
 33
0.0
  0
SOLID
  5
15D
  8
KEE16-7
 10
2.5750000000000002
 20
-1.9310335477228211
 30
0.0
 11
2.5750000000000002
 21
-1.9727002143894881
 31
0.0
 12
2.7000000000000002
 22
-1.951866881056155
 32
0.0
 13
2.7000000000000002
 23
-1.951866881056155
 33
0.0
  0
INSERT
  5
15E
  8
0
  2
*U2
 10
0.0
 20
0.0
 30
0.0
  0
ENDSEC
  0
EOF
